Home » C » Clint Black »

Clint Black - Easy For Me To Say(2) Tabs

Artists:  A B C D E F G H I J K L M N O P Q R S T U V W X Y Z # 

Easy For Me To Say(2) Tabs

(ver. 2) Click to play this song!
Clint Black
 Rating:
4/5 (4 votes)
                Easy for me to say   by Clint Black





|-5---3h5p3p2h3---2h3p2---2-3--s5--5--5-|--10101010---s12-10--9h10p9-------|
|----------------------3----------------|-----------9----------------12-10-|
|---------------------------------------|----------------------------------|
|---------------------------------------|----------------------------------|
|---------------------------------------|----------------------------------|
|---------------------------------------|----------------------------------|



|-7-9---10--9--7-----5--7--5--------0-------2h3p2-|
|------x----------------------8--7----------------|
|---------------------------------------1-2-------|
|-------------------------------------------------|
|-------------------------------------------------|
|-------------------------------------------------|


                                                                      ...the  words
|-2h3-s5--5-5--3-3--s10-9br--------|--------------------------------|--------10----|
|---------------------------12-10--|---------s10--7----------7--8--7|--------------|
|----------------------------------|-7h9p7---s11--9--7h9p7---7--9--7|----s11-------|
|----------------------------------|----------------------9---------|--------------|
|----------------------------------|--------------------------------|--------------|
|----------------------------------|--------------------------------|--------------|


This is up and down the neck, and there may be an easier way to play it, so if anyone
has a better idea...

            
Submit corrections

↑ Back to top | Tablatures and chords for acoustic guitar and electric guitar, ukulele, drums are parodies/interpretations of the original songs. You may use it for private study, scholarship, research or language learning purposes only