Home » C » Clint Black »

Clint Black - A Better Man Tabs

Artists:  A B C D E F G H I J K L M N O P Q R S T U V W X Y Z # 

A Better Man Tabs

(ver. 1) Click to play this song!
Clint Black
Intro & chorus
G---|-----------------------------------------
D---|-----------------------------------------
A---|--------------2-----2--------------------
E---|--5--4--2--0-----2-----2--5--4--2--2--0--

    Verses                                          
G---|--------------------------------------------
D---|--------------------------------------------
A---|-----2-----2-----4-----4-----------------2--
E---|--0-----0-----2-----2-----5--0--5--0--0-----

      gotta make this memory stand clear
G---|---------------------------------------
D---|---------------------------------------
A---|-----------------2---------------2-----
E---|--5--0---------------2--------0-----0--
    *stays steady - notes are spread out to match the words*
            
Submit corrections

↑ Back to top | Tablatures and chords for acoustic guitar and electric guitar, ukulele, drums are parodies/interpretations of the original songs. You may use it for private study, scholarship, research or language learning purposes only