Home » C » City High »

City High - What Would You Do? Tabs

Artists:  A B C D E F G H I J K L M N O P Q R S T U V W X Y Z # 

What Would You Do? Tabs

(ver. 1) Click to play this song!
City High
 Rating:
4/5 (4 votes)
                1st part played clean through a Fender Vibro-Lux Reverb with a Fender 4x12 cabinet
2nd part (before singing) is played through a marshall TSL120 Head and a Mesa Boogie Single Rectifier and 
Fender 4x12 cab(for the mesa boogie) and a marshall 4x12 for the marshall
The verse is played with 4 mesa boogie triple rectifiers and 11 marshall jcm900's and 16 marshall tsl 
and 16.2 million mesa boogie single and dual rectifiers and 33 fender twin reverbs through 14 fender cabs
The ending is played with a boss phase shifter.... and through the distorted part of the intro there is a 
supra distortin and a dan electro honeytone amp and a nifty fifty custom sized to 20x40 feet.
ENJOY!!!!!!!!!!!!!!!!!!

intro
1)
D--------5-------------5-----|
A-----7--------7----7--------|
E--0-------6-5---0-------6-5-|
clean


2a)
D-----------------------------------|
A--2-------------/7--------------/7-|
E--0--0-0-0-0-0-0---0-0-0-0-0-0-0---|
     pm..........   .............

2b)
D-------------------|
A-----/7----------3-|
E--0-0---6--0-0-0-1-|

2c)
D--------------------|
A-----/7-----------3-|
E--0-0---6-5-0-0-0-1-|
  pm..       .......


3)Main riff
D----------------          ------------------------|
A--2--2-/7------- 3 times  ----5-----4-----4-5-4-2-|
E--0--0----6--5~~          -0--3--0--2--0--2-3-2-0-|


4)
D---------------------------------------------------|
A--2-------------3  twice then end with riff above--|
E--0-0-0-0-0-0-0-1----------------------------------|
  pm..............
Say your prayers...


5)
G--------2--------------2-------|
D-----4--------4-----4--------4-|
A----------3-2------------3-2---|
E--2--------------2-------------|
Sleep with one eye...


6)
D------5--4-----5--4-----5--4----|
A---4--3--2--4--3--2--4--3--2--2-|
E--\2--------2--------2--------0-|
Exit light

after the solo riff 1) is played until he comes in with "hush little baby"
where it moves up a step (changes to riff 5 clean)

_____________________________________
solo by Cliff and Wes Pecan

--------------------------------|------------------------------|
--15--15--15----------------15--|----15--15--------15b---15b---|
--14b-14b-14b-14--14b-14----14b-|----14--14--14p12-------------|
--------------------------------|------------------------------|
--------------------------------|------------------------------|
--------------------------------|------------------------------|

--------------------------------------------------|
--------------------------------------------------|
--12/14-14-14-14\12-12-12-12/14-14-14-14\12-12-12-|
--------------------------------------------------|
--10/12-12-12-12\10-10-10-10/10-10-10-10\10-10-10-|
--------------------------------------------------|

--------------------------------------|
--------------------------------------|
--14-12-------------------------------|
--------14--14p12---------------------|
------------------14--14p12-----------|
----------------------------15--12~---|

-----12----12----12----12----12----12----12----12-|
--15b---15b---15b---15b---15b---15b---15b---15b---|
--------------------------------------------------|
--------------------------------------------------|
--------------------------------------------------|
--------------------------------------------------|

-----12----12h15p12----12h15p12----12h15p12----12-15-12-12-14-14-|
--15b---15b---------15----------15----------15-------------------|

--17p14----17p14----17p14-19p15----19p15----19p15-|
--------15-------15-------------17-------17-------|
--------------------------------------------------|
--------------------------------------------------|
--------------------------------------------------|
--------------------------------------------------|

--21p17----21p17p0-21p17-22b---------|--------------------|
--------17------------------------9b-|------9b-----9b-----|
----------------------------------9b-|------9b-----9b-----|
-------------------------------------|--------------------|
-------------------------------------|--------------------|
-------------------------------------|--------------------|

---------------------------|-------------------------------|
--9b---9b---------------10~|------10-8-7---8p7---7---------|
--9b---9b---7---------7----|-------------9-----9---9-7---7-|
--------------9~--7h9------|---------------------------9---|
---------------------------|-------------------------------|
---------------------------|-------------------------------|

--------------------------------|--------------------------------------|
--------------------------------|--------------------------------------|
--9p7---------------------------|--16b-14---------14-16b-14~--------14-|
------9p7---7-9p7---------------|----------16--16------------16--16----|
----------9-------9-8-7-5-------|--------------------------------------|
--------------------------7--5\-|--------------------------------------|

--------------------------------------|----------------------------------|
--------------------------------------|------17-------17-17------17--17--|
--16b-14~--------14-16b-14---------14-|--16b----16-16b---16b---------16b-|
----------16--16------------16~-16----|----------------------------------|
--------------------------------------|----------------------------------|
--------------------------------------|----------------------------------|


----------------------------|--21p17p0-21p17p0-21p17p0-21p17p0-21p17p0-21p17p0-|
----------------------------|--------------------------------------------------|
------16--16----16--16------|--------------------------------------------------|
------------------------20--|--------------------------------------------------|
----------------------------|--------------------------------------------------|
----------------------------|--------------------------------------------------|

--22b-22b22b22b-22b22b22b-------|----5p3p0---------------------|
--------------------------------|----------5--5p3-0------------|
--------------------------------|--------------------4p2-0--2b-|
--------------------------------|------------------------------|
--------------------------------|------------------------------|
--------------------------------|------------------------------|

-----------------------|--------------------|-------------------------|
-----------------------|--------------------|-------------------------|
--0--------------------|--------------------|-------------------------|
----2~-----------0h2p0-|--------------------|-------------------------|
-----------------------|--4~-------------0--|--2----2--2--2--2--2--2--|
-----------------------|--------------------|-------------------------|

--------------------------|
--------------------------|
--------------------------|
--------------------------|
--2--2--2--2--2--2--2-----|
-----------------------0--|
            
Submit corrections

↑ Back to top | Tablatures and chords for acoustic guitar and electric guitar, ukulele, drums are parodies/interpretations of the original songs. You may use it for private study, scholarship, research or language learning purposes only