» » »

Circa Survive - In Fear And Faith Tabs

Artists:  A B C D E F G H I J K L M N O P Q R S T U V W X Y Z # 

In Fear And Faith Tabs

(ver. 1) Click to play this song!
Circa Survive
 Rating:
4/5 (4 votes)
                (Intro)
this is my first tab the intro is pretty easy tuning is standard




E|--------------------------------------------------------------------------|
A|--------------------------------------------------------------------------|
d|--------------------------------------------------------------------------|
G|--------------------------------------------------------------------------|
b|-8-8-8-8-8-8-8-8-8-8-8-8--11-11--10-10--6-6-6-6-6-6-6-6-6-6-6-6--11-11----|
e|-6-6-6-6-6-6-6-6-6-6-6-6--10-10---8-8---5-5-5-5-5-5-5-5-5-5-5-5--10-10----|

E|--------------------------------------------------------------------------|
A|--------------------------------------------------------------------------|
d|--------------------------------------------------------------------------|
G|--------------------------------------------------------------------------|
b|-10-10--------------------------------------------------------------------|
e|-8--8---------------------------------------------------------------------|



repeat once
            
Submit corrections

↑ Back to top | Tablatures and chords for acoustic guitar and electric guitar, ukulele, drums are parodies/interpretations of the original songs. You may use it for private study, scholarship, research or language learning purposes only