Home » C » Cigar »

Cigar - Show Me Tabs

Artists:  A B C D E F G H I J K L M N O P Q R S T U V W X Y Z # 

Show Me Tabs

(ver. 1) Click to play this song!
Cigar

play 7 times                          then play this once and give a slight pause
e|---------------------------------|------------------------------------------|
B|-*------------------------------*|------------------------------------------|
G|---------------------------------|------------------------------------------|
D|-----7---------------------------|-----7------------------------------------|
A|--5----------7-------4h5----5p4--|--5----------7-------4h5-5----------------|
E|--------5-5-----5---5----5-5-----|--------5-5-----5---5---------------------|

then play 4 more times
e|---------------------------------|
B|-*------------------------------*|
G|---------------------------------|
D|-----7---------------------------|
A|--5----------7-------4h5----5p4--|
E|--------5-5-----5---5----5-5-----|


e|------------------------------------------------|
B|------------------------------------------------|
G|------------------------------------------------|
D|---7~---------9---------------------------------|
A|---5~---------7----4h5p4h5p4h5p4h5p4------------|
E|---3~---------5---------------------------------|

distortion
e|---------------------------------------------------------------------------|
B|---------------------------------------------------------------------------|
G|-----------9-9--6-6---7-7----------9-9--6-6-6/9-7-6------------------------|
D|----7-7----7-7--7-7-7-7-7---7-7----7-7--7-7--------------------------------|
A|----5-5--0------------------5-5--0-----------------------------------------|
E|---------------------------------------------------------------------------|

Verse
play twice
e|---------------------------------------------------------------------------|
B|*----------------------------------------------------------------*---------|
G|---------------------------------------------------------------------------|
D|-777-777-777-777-----------------------------------------------------------|
A|-555-555-555-555-999-999-999-999-555-555-444-444-777-777-777-777-----------|
E|-----------------777-777-777-777-333-333-222-222-555-555-555-555-----------|

Chorus
e|---------------------------------------------------------------------------|
B|---------------------------------------------------------------------------|
G|---------------------------------------------------------------------------|
D|--777-777-7-----------------------777-777-7--------------------------------|
A|--555-555-577-777-755-555-555-555-555-555-577-777-755-544-422-244----------|
E|-----------55-555-533-333-333-333----------55-555-533-333-333-333----------|


e|---------------------------------------------------------------------------|
B|---------------------------------------------------------------------------|
G|-----------9-9--6-6---7-7----------9-9--6-6---7-7--------------------------|
D|----7-7----7-7--7-7-7-7-7---7-7----7-7--7-7-7-7-7--------------------------|
A|----5-5--0------------------5-5--0-----------------------------------------|
E|---------------------------------------------------------------------------|

Verse
play twice
e|---------------------------------------------------------------------------|
B|*----------------------------------------------------------------*---------|
G|---------------------------------------------------------------------------|
D|-777-777-777-777-----------------------------------------------------------|
A|-555-555-555-555-999-999-999-999-555-555-444-444-777-777-777-777-----------|
E|-----------------777-777-777-777-333-333-222-222-555-555-555-555-----------|

Chorus (longer than first)
e|---------------------------------------------------------------------------|
B|---------------------------------------------------------------------------|
G|---------------------------------------------------------------------------|
D|--777-777-7-----------------------777-777-7--------------------------------|
A|--555-555-577-777-755-544-422-244-555-555-577-777-755-544-422-244----------|
E|-----------55-555-533-333-333-333----------55-555-533-333-333-333----------|

e|---------------------------------------------------------------------------|
B|---------------------------------------------------------------------------|
G|---------------------------------------------------------------------------|
D|--777-777-7-----------------------777-777-7--------------------------------|
A|--555-555-577-777-755-555-555-555-555-555-577-777-755-544-422-244----------|
E|-----------55-555-533-333-333-333----------55-555-533-333-333-333----------|

play 4 times
e|---------------------|
B|---------------------|
G|---------------------|
D|--7------------------|
A|--5---7--4-4--5------|
E|------5--5-5--3------|

play 4 times
e|---------------------------------|
B|-*------------------------------*|
G|---------------------------------|
D|-----7---------------------------|
A|--5----------7-------4h5----5p4--|
E|--------5-5-----5---5----5-5-----|

e|---------------------------------------------------------------------------|
B|---------------------------------------------------------------------------|
G|---------------------------------------------------------------------------|
D|--------------------4------------------4----5--4---------------------------|
A|-----------4--5--7----7--5----4--5--7----7---------------------------------|
E|--7-7-7-7-------------------5----------------------------------------------|

e|---------------------------------------------------------------------------|
B|---------------------------------------------------------------------------|
G|---------------------------------------------------------------------------|
D|-777-777-777-777-777-777-777-77--------------------------------------------|
A|-555-555-555-555-444-444-444-447--555-555-555-555-777-777-777-777----------|
E|-------------------------------5--333-333-333-333-555-555-555-555----------|

e|---------------------------------------------------------------------------|
B|---------------------------------------------------------------------------|
G|---------------------------------------------------------------------------|
D|-777-777-777-777-777-777-777-777-------------------------------------------|
A|-555-555-555-555-444-444-444-444-999-999-999-999-555-555-555-555-----------|
E|---------------------------------777-777-777-777-333-333-333-333-----------|

e|---------------------------------------------------------------------------|
B|---------------------------------------------------------------------------|
G|----------------------------------444-444-444-444-666-666-666-666----------|
D|-777-777-777-777-777-777-777-77---xxx-xxx-xxx-xxx-xxx-xxx-xxx-xxx----------|
A|-555-555-555-555-444-444-444-447--555-555-555-555-777-777-777-777----------|
E|-------------------------------5--333-333-333-333-555-555-555-555----------|

e|---------------------------------------------------------------------------|
B|---------------------------------------------------------------------------|
G|---------------------------------------------------------------------------|
D|-777-777-777-777-777-777-777-777-------------------------------------------|
A|-555-555-555-555-444-444-444-444-999-999-999-999-555-555-555-555-----------|
E|---------------------------------777-777-777-777-333-333-333-333-----------|

e|---------------------------------------------------------------------------|
B|---------------------------------------------------------------------------|
G|-----------9-9--6-6---7-7----------9-9--6-6---7-7--------------------------|
D|----7-7----7-7--7-7-7-7-7---7-7----7-7--7-7-7-7-7--------------------------|
A|----5-5--0------------------5-5--0-----------------------------------------|
E|---------------------------------------------------------------------------|

e|---------------------------------------------------------------------------|
B|---------------------------------------------------------------------------|
G|-----------9-9--6-6---7-7----------9-9--6-6-6/9-7-6--7-7-------------------|
D|----7-7----7-7--7-7-7-7-7---7-7----7-7--7-7----------7-7-------------------|
A|----5-5--0------------------5-5--0-----------------------------------------|
E|---------------------------------------------------------------------------|
            
Submit corrections

↑ Back to top | Tablatures and chords for acoustic guitar and electric guitar, ukulele, drums are parodies/interpretations of the original songs. You may use it for private study, scholarship, research or language learning purposes only