Home » C » Cigar »

Cigar - Mr Hurtado Tabs

Artists:  A B C D E F G H I J K L M N O P Q R S T U V W X Y Z # 

Mr Hurtado Tabs

(ver. 1) Click to play this song!
Cigar
intro
palm muted (except for *)
e|---------------------------------------------------------|
B|---------------------------------------------------------|
G|---*--------------*--------------*------------*---*-*----|
D|---8-----------------------------5-----------------------|
A|---5/6-6-6-6-6-6--6--------------3-3-3-3-3-3--5/6-6-5----|
E|------------------3/4-4-4-4-4-4---------------6---6-6----|

e|--------------------------------|
B|--------------------------------|
G|--------------------------------|
D|--------------------------------|
A|---6-6-6-6-6-6-6-6-666666666----|
E|---4-4-4-4-4-4-4-4-444444444----|

e|---------------------------------------------------------------------------|
B|---------------------------------------------------------------------------|
G|---------------------------------------------------------------------------|
D|----888-888-888-888--------------------------------------------------------|
A|----666-666-666-666-333-333-333-333-666-666-666-666-101010-101010-888-888--|
E|--------------------111-111-111-111-444-444-444-444--8-8-8--8-8-8-666-666--|

e|-------------------------------------------------------------------------------------|
B|-------------------------------------------------------------------------------------|
G|-------------------------------------------------------------------------------------|
D|----888-888-888-888------------------------------------------------------------------|
A|----666-666-666-666-333-333-333-333-101010-101010-101010-101010-666-666-888-888------|
E|--------------------111-111-111-111--8-8-8--8-8-8--8-8-8--8-8-8-444-444-666-666------|


e|---------------------------------------------------------------------------|
B|---------------------------------------------------------------------------|
G|---12-12--12-13-13--13-12-12--12-10-10--10-8-8--8-8-8--8-10-10--10-10-10---|
D|---------------------------------------------------------------------------|
A|---10-10--10-11-11--11-10-10--10--8--8---8-6-6--6-6-6--6--8--8---8--8--8---|
E|---------------------------------------------------------------------------|

e|------------------------------------------------------------------------------|
B|---------------------------------------------------------------11-11-11-11-11-|
G|---12-12--12-13-13--13-12-12--12-10-10--10-8-8--8-8-8--7~--10~-10-10-10-10-10-|
D|------------------------------------------------------------------------------|
A|---10-10--10-11-11--11-10-10--10--8--8---8-6-6--6-6-6--5~---8~--8--8--8--8--8-|
E|------------------------------------------------------------------------------|

play 3 times
e|---------------------------------------------|
B|---------------------------------------------|
G|---------------------------------------------|
D|----888-888----------------------------------|
A|----666-666-666-666-101010-101010-888-888----|
E|------------444-444--8-8-8--8-8-8-666-666----|

e|----------------------------------------------------------------------|
B|----------------------------------------------------------------------|
G|----------------------------------------------------------------------|
D|----888-888-----------------------------------------------------------|
A|----666-666-666-666-101010-101010-888-888-666-666-666-666-666-666-666-|
E|------------444-444--8-8-8--8-8-8-666-666-444-444-444-444-444-444-444-|

e|---------------------------------------------------------------------------|
B|---------------------------------------------------------------------------|
G|---------------------------------------------------------------------------|
D|----888-888-888-888--------------------------------------------------------|
A|----666-666-666-666-333-333-333-333-666-666-666-666-101010-101010-888-888--|
E|--------------------111-111-111-111-444-444-444-444--8-8-8--8-8-8-666-666--|

e|-------------------------------------------------------------------------------------|
B|-------------------------------------------------------------------------------------|
G|-------------------------------------------------------------------------------------|
D|----888-888-888-888------------------------------------------------------------------|
A|----666-666-666-666-333-333-333-333-101010-101010-101010-101010-666-666-888-888------|
E|--------------------111-111-111-111--8-8-8--8-8-8--8-8-8--8-8-8-444-444-666-666------|

e|---------------------------------------------------------------------------|
B|---------------------------------------------------------------------------|
G|---12-12--12-13-13--13-12-12--12-10-10--10-8-8--8-8-8--8-10-10--10-10-10---|
D|---------------------------------------------------------------------------|
A|---10-10--10-11-11--11-10-10--10--8--8---8-6-6--6-6-6--6--8--8---8--8--8---|
E|---------------------------------------------------------------------------|

e|---------------------------------------------------------------------------|
B|---------------------------------------------------------------------------|
G|---12---13---12---10---8-8-8-8-8-8-10-10-10-10-10--------------------------|
D|---------------------------------------------------------------------------|
A|---10---11---10----8---6-6-6-6-6-6--8--8--8--8--8--------------------------|
E|---------------------------------------------------------------------------|

Palm muted
play twice
e|----------------------------------------------------------------------------|
B|----------------------------------------------------------------------------|
G|----------------------------------------------------------------------------|
D|----------------------------------------------------------------------------|
A|---10-10-10-10-11-11-11-11-10-10-10-10-8-8-8-8-6-6-6-6-6-6-6-6-8-8-8-8-8-8-8|
E|----------------------------------------------------------------------------|

palm muted (except for *)
e|---------------------------------------------------------------------------|
B|---------*----------*---------*------*------*------*------*------*---------|
G|---------12--------13--------12-----10------8------8-----10-----10---------|
D|---------------------------------------------------------------------------|
A|---10-10-10--11-11-11--10-10-10--8-8-8--6-6-6--6-6-6--8-8-8--8-8-8---------|
E|---------------------------------------------------------------------------|

e|----------------------------------------------------|-----------------------|
B|---------*----------*---------*------*------*------*|-----------------------|
G|---------12--------13--------12-----10------8------8|------------8~----10~--|
D|----------------------------------------------------|-----------------------|
A|---10-10-10--11-11-11--10-10-10--8-8-8--6-6-6--6-6-6|---5---5/6--6~-----8~--|
E|----------------------------------------------------|-----6-----------------|

e|-----------------------|
B|-----------------------|
G|--7~----8~----7--5~----|
D|-----------------------|
A|--5~----6~----5--3~----|
E|-----------------------|


e|-----------------------------------------------------------------------------|
B|-----------------------------------------------------------------------------|
G|-----------------------------------------------------------------------------|
D|----888-888-888-888-------------------------------------------------------8--|
A|----666-666-666-666-333-333-333-333-666-666-666-666-101010-101010-888-888-6--|
E|--------------------111-111-111-111-444-444-444-444--8-8-8--8-8-8-666-666----|
            
Submit corrections

↑ Back to top | Tablatures and chords for acoustic guitar and electric guitar, ukulele, drums are parodies/interpretations of the original songs. You may use it for private study, scholarship, research or language learning purposes only