Home » C » Cigar »

Cigar - Dr Jones Tabs

Artists:  A B C D E F G H I J K L M N O P Q R S T U V W X Y Z # 

Dr Jones Tabs

(ver. 1) Click to play this song!
Cigar
Tuning: standard

verse (play 6 times)
e|---------------------------------------------------------------------------|
B|---------------------------------------------------------------------------|
G|---------------------------------------------------------------------------|
D|----------------------------------------7/9--------------------------------|
A|--7/9-9-9-9--7/9-9-9-9--7/9-9-9-9--7/9--5/7--------------------------------|
E|--5/7-7-7-7--5/7-7-7-7--5/7-7-7-7--5/7-------------------------------------|

Chorus (play twice)
e|---------------------------------------------------------------------------|
B|---------------------------------------------------------------------------|
G|---------------------------------------------------------------------------|
D|---------------------------------------------------------------------------|
A|--9-9-9-9--5-5-5-5--2-2-2-2--7--7-7----------------------------------------|
E|--7-7-7-7--3-3-3-3--0-0-0-0--5--5-5----------------------------------------|
            
Submit corrections

↑ Back to top | Tablatures and chords for acoustic guitar and electric guitar, ukulele, drums are parodies/interpretations of the original songs. You may use it for private study, scholarship, research or language learning purposes only