» » »

Christopher Cross - Sailing Tabs

Artists:  A B C D E F G H I J K L M N O P Q R S T U V W X Y Z # 

Sailing Tabs

(ver. 1) Click to play this song!
Christopher Cross
 Rating:
4.6/5 (10 votes)

 Sailing lessons Tabs too difficult? Try these video lessons and learn fast
 
                D Tuning (DADF#Ad)
* strum

 
INTRO:

d|--------------------------------|
A|--0------0------0-----0---------|
F#|---2------2------0-----0-------| (2)
D|------2------2------2-----2-----|
A|--------------------------------|
D|--------------------------------|


d|--------------------------------|
A|--0------0------2-----2---------|
F#|---2------2------3------3------| (2)
D|------2------2------2------2----|
A|--------------------------------|
D|--------------------------------|

d|---------------------------------|
A|----2-------2-------4------4-----|
F#|-----2-------2-------3------3---| (4)
D|--------2-------2-------2------2-|
A|---------------------------------|
D|---------------------------------|

VERSE: (same as intro)(2x)


CHORUS:

d|---------------------------------|
A|----2-------2-------4------4-----|
F#|-----2-------2-------3------3---| (2)
D|--------2-------2-------2------2-|
A|---------------------------------|
D|---------------------------------|

d|--------------------------------|
A|--0------0------0-----0---------|
F#|---2------2------0-----0-------| (2)
D|------2------2------2-----2-----|
A|--------------------------------|
D|--------------------------------|

      *      *      *
d|-------------------------------|
A|----0------0------0------------|
F#|---8------3------10-----------|
D|----7------2------9------------|
A|----9------4------11-----------|
D|----9------4------11-----------|



verse, chorus...

d|--------------------------------|
A|--0------0------0-----0---------|
F#|---2------2------0-----0-------| (2)
D|------2------2------2-----2-----|
A|--------------------------------|
D|--------------------------------|


SOLO:

d|-----------------------------------------------------|
A|-----------7---------------7---------------3---------|
F#|--------7---7-----------7---7-----------3----3------|
D|-------9-------9-------9-------7------3----------3---|
A|-----------------------------------------------------|
D|----7---------------7--------------3-----------------|

d|------------------------------------------------5---5-----------|
A|----------5-------------1--------------3--------5---5-----------|
F#|-------5---5---------1---1----------3---3------5---5-----------|
D|------5-------5-----1-------1------3-------3----5---5-----------|
A|------------------------------------------------5---5-----------|
D|---5--------------1-------------3---------------5---5-----------|



d|------------------------------------------------------|
A|------------10--------------------10------------------|
F#|--------10----10--------------10----10---------------|
D|-----12-----------12-------12-----------10------------|
A|------------------------------------------------------|
D|--10-------------------10-----------------------------|


d|-----------------------------------------------------7---7-----|
A|--------6------------8------------3----------5-------7---7-----|
F#|-----6--6---------8---8--------3--3-------5---5-----7---7-----|
D|----6------6-----8-------8----3------3---5-------5---7---7-----|
A|-----------------------------------------------------7---7-----|
D|--6-----------8-------------3----------5-------------7---7-----|


verse, chorus...


OUTRO:

d|--------------------------------|     ---0----
A|--0------0------0-----0---------|     ---0----
F#|---2------2------0------0------| 5x  ---0----
D|------2------2------2------2----|     ---0----
A|--------------------------------|     ---0----
D|--------------------------------|     ---0----
            
Submit corrections


        Sailing lessons Hard to play? Try these video lessons and learn fast Sailing lessons
        
↑ Back to top | Tablatures and chords for acoustic guitar and electric guitar, ukulele, drums are parodies/interpretations of the original songs. You may use it for private study, scholarship, research or language learning purposes only