Home » C » Christmas Songs »

Christmas Songs - The First Noel Tabs

Artists:  A B C D E F G H I J K L M N O P Q R S T U V W X Y Z # 

The First Noel Tabs

(ver. 2) Click to play this song!
Christmas Songs
The First Noel
Traditional

This is another solo instrumental piece that I do during
the Christmas season, so the lyrics are intentionally
absent.

Key of G
3/4 Time

               G       Em   D/F#    C    G/B     C   
e ------------ ------------ --------0-2- 3---2---0---
b --------0--- --------0-1- 3----------- 3-----------
g ----------2- 0-----2----- 2----------- ------------
d --------0--- ------------ ----0------- ------------
a ------------ ------------ --------3--- 2---3---3---
E ------------ 3---2---0--- 2----------- ------------


  G/B     C    G/B D   C    G/B C   D    Em  G/B Am  
e --------0-2- 3---2---0--- ----0---2--- 3-----------
b 3----------- ------------ 3----------- ----3---1---
g ------------ ------------ ------------ ------------
d ----0------- ----0------- --------0--- 2-----------
a 2-------3--- 2-------3--- 2---3------- ----2---0---
E ------------ ------------ ------------ ------------


  G9           G       Em   D/F#    C    G/B     C   
e ------------ ------------ --------0-2- 3---2---0---
b 0-------0--- --------0-1- 3----------- 3-----------
g 2---0-----2- 0-----2----- 2----------- ------------
d --------0--- ------------ ----0------- ------------
a ------------ ------------ --------3--- 2---3---3---
E 3----------- 3---2---0--- 2----------- ------------


  G/B     C    G/B D   C    G/B C   D    Em  G/B Am  
e --------0-2- 3---2---0--- ----0---2--- 3-----------
b 3----------- ------------ 3----------- ----3---1---
g ------------ ------------ ------------ ------------
d ----0------- ----0------- --------0--- 2-----------
a 2-------3--- 2-------3--- 2---3------- ----2---0---
E ------------ ------------ ------------ ------------


  G9      G/F# Em           D/F#    G    C           
e ------------ ------------ --------3-2- 0-------0---
b 0-------0--- --------0-1- 3----------- ----1-------
g 2---0-----2- 0-----2----- ----2---0--- --0---------
d ------------ ----2------- --0---0----- ------0-2h4-
a ------------ --2--------- ------------ 3-----------
E 3-------2--- 0----------- 2----------- ------------


  G            C/E G/D C    G/B C   D    Em  G/B Am7  
e ------------ 3---2---0--- ----0---2--- 3----------- 
b 3----------- ------------ 3----------- ----3---1--- 
g 4----------- --0---0---0- --0---0---2- --0---0---0- 
d 5-------4--- 2---0------- --------0--- 2----------- 
a ------------ --------3--- 2---3------- ----2---0--- 
E ------------ ------------ ------------ ------------ 


                                 Final Ending
  G     To Top                   G 
e ------------                   ------------ ------------ 
b 0-------0---                   0----------- ------------ 
g ----------2-                   0----------- ------------ 
d ----0-------                   0----------- ------------ 
a ------------                   ------------ ------------ 
E 3-----------                   3----------- ------------ 
            
Submit corrections

↑ Back to top | Tablatures and chords for acoustic guitar and electric guitar, ukulele, drums are parodies/interpretations of the original songs. You may use it for private study, scholarship, research or language learning purposes only