Home » C » Christmas Songs »

Christmas Songs - The First Noel Tabs

Artists:  A B C D E F G H I J K L M N O P Q R S T U V W X Y Z # 

The First Noel Tabs

(ver. 1) Click to play this song!
Christmas Songs
Dropped D Tuning:

e-----------------------------------------------------------------------
B----------------------------------0--2--3----2---0-----0--2--3--2--0---
G-------------------------0---2----------0-----------2--------0---------
D----4--2--0---0----2--4------------------------------------------------
A-----------------------------0-----------------------------------------
D--------------0-------------------------------------0------------------

e----------------------|--------------------------------------0--2------
B-----0--2--3----------|-------------------------3--2--0--2--3----------
G--2--------0--2------o|-------------------0--2--------0----------------
D------------------4--o|----4--2--0--2--4------------------------0------
A----------------------|----------------------0-------------------------
D--0---------------0---|----------0-------------------------------------

e--0---------------------------------------------------------------------
B--------3--2--0-------0--2--3-------------------------------------------
G--------0----------2--------0---2---0-----------------------------------
D-----------------------------------------4------------------------------
A--0---------------------------------0-----------------------------------
D-------------------0---------------------0------------------------------

Merry Christmas! :)
            
Submit corrections

↑ Back to top | Tablatures and chords for acoustic guitar and electric guitar, ukulele, drums are parodies/interpretations of the original songs. You may use it for private study, scholarship, research or language learning purposes only