Home » C » Christmas Songs »

Christmas Songs - Jingle Bells. Tabs

Artists:  A B C D E F G H I J K L M N O P Q R S T U V W X Y Z # 

Jingle Bells. Tabs

(ver. 1) Click to play this song!
Christmas Songs
		              Jingle Bells


e|---------------------------------------------------------------------------|
B|---------------------------------------------------------------------------|
G|------4-------------------------------------4------------------------------|
D|-------------7------5-----------------------------7--5---------------------|
A|--5------------------------5---5---5---5--------------------5--------------|
E|---------------------------------------------------------------------------|
  Dash-ing  through  the  snow  in  a  one  horse  op-en  sleigh

e|---------------------------------------------------------------------------|
B|---------------------------------------------------------------------------|
G|--------5------4---------7-----9---7----5----2----4------------------------|
D|--------------------7------------------------------------------------------|
A|--5------------------------------------------------------------------------|
E|---------------------------------------------------------------------------|
   O’er  the  fields  we  go  laugh-ing  all  the  way

e|---------------------------------------------------------------------------|
B|---------------------------------------------------------------------------|
G|--------4------------------------4-----------------------------------------|
D|---------------------------------------7---5-------------------------------|
A|---5---------7----5----5-----5-------------------9-------------------------|
E|---------------------------------------------------------------------------|
   Bells  on  bob-tail  ring  mak-ing  spir-its  bright

e|---------------------------------------------------------------------------|
B|---------------------------------------------------------------------------|
G|-------------5---4--------7----7-----7---7----9-----7-----5----7---5--/--9-|
D|---------------------7-----------------------------------------------------|
A|---7----7------------------------------------------------------------------|
E|---------------------------------------------------------------------------|
   What  fun  it  is  to  ride  and  sing  a  sleigh-ing  song  to-night  oh

e|---------------------------------------------------------------------------|
B|---------------------------------------------------------------------------|
G|---------------------------------------------------------------------------|
D|---9---9----9------9---9----9------9--12-------------9---------------------|
A|-------------------------------------------10---12-------------------------|
E|---------------------------------------------------------------------------|
   Jing-le  bells  jing-le  bells  jing-le  all  the  way  

e|---------------------------------------------------------------------------|
B|---------------------------------------------------------------------------|
G|--------------------------------------------------------------------7------|
D|10---10----10--10--10---9----9----9--9---9-----7----7--9-----7-------------|
A|---------------------------------------------------------------------------|
E|---------------------------------------------------------------------------|
  Oh  What  Fun  It  is  to  ride  on  a  one  horse  o-pen  sleigh  hey

e|---------------------------------------------------------------------------|
B|---------------------------------------------------------------------------|
G|---------------------------------------------------------------------------|
D|---9---9----9------9---9----9------9--12-------------9---------------------|
A|-------------------------------------------10---12-------------------------|
E|---------------------------------------------------------------------------|
   Jing-le  bells  jing-le  bells  jing-le  all  the  way  

e|---------------------------------------------------------------------------|
B|---------------------------------------------------------------------------|
G|--------------------------------------------------------------------7------|
D|10---10----10--10--10---9----9----9--9---9-----7----7--9-----7-------------|
A|---------------------------------------------------------------------------|
E|---------------------------------------------------------------------------|
   O  What  Fun  It  is  to  ride  on  a  one  horse  o-pen  sleigh  hey
            
Submit corrections

↑ Back to top | Tablatures and chords for acoustic guitar and electric guitar, ukulele, drums are parodies/interpretations of the original songs. You may use it for private study, scholarship, research or language learning purposes only