» » »

Christmas Songs - Jingle Bells. Tabs

Artists:  A B C D E F G H I J K L M N O P Q R S T U V W X Y Z # 

Jingle Bells. Tabs

(ver. 3) Click to play this song!
Christmas Songs
 Rating:
4/5 (4 votes)
                Theme: Christmas
Tuning: Standard

E--0-0-0--0-0-0--0-3------0
B---------------------1-3--
G--------------------------
D--------------------------
A--------------------------
E--------------------------

E--1-1-1-1-1-0-0-0-0-----0--
B--------------------3-3---3
G---------------------------
D---------------------------
A---------------------------
E---------------------------

E--0-0-0--0-0-0--0-3------0
B---------------------1-3--
G--------------------------
D--------------------------
A--------------------------
E--------------------------

E--1-1-1-1-1-0-0-0-0--3-3-1----
B---------------------------3-1
G------------------------------
D------------------------------
A------------------------------
E------------------------------
            
Submit corrections

↑ Back to top | Tablatures and chords for acoustic guitar and electric guitar, ukulele, drums are parodies/interpretations of the original songs. You may use it for private study, scholarship, research or language learning purposes only