Home » C » Chris Isaak »

Chris Isaak - I Wonder Tabs

Artists:  A B C D E F G H I J K L M N O P Q R S T U V W X Y Z # 

I Wonder Tabs

(ver. 3) Click to play this song!
Chris Isaak
Standard Tuning


E----|---------------------------------------|
B----|---------------------------------------|
G----|--------0-----9b----5/7\5-----0h2-0----|
D----|-0-0h2---------------------------------|
A----|---------------------------------------|
E----|---------------------------------------|
Intro   
* C is more like an Am7 since you pluck only D,G,B strings   


       C     F     G    C                      C    F
E----|--------------------------------------------------------------------------|  
B----|-1-----1-----0----1--------------1-------1----1---0---1------------------1|   
G----|-0-----2-----0----0----------0-----2--0--0----2---0---0---------0--0-0h2--| 
D----|-2-----3-----0----2----0-0h2-------------2----3---0---2---0-0h2-----------|        
A----|--------------------------------------------------------------------------|       
E----|--------------------------------------------------------------------------|
Verse  A     A     A    A           Let Ring   A    A   A   A



E----|-5----3----0----------3v-|--|--8------3---------|
B----|-5----3----1----3/5------|--|--10-----3--3-3--3-|
G----|-------------------------|--|-------------------|
D----|-------------------------|3x|-------------------|
A----|-------------------------|--|-------------------|
E----|-------------------------|--|-------------------|
Chorus P    P    P                    P     P     


E----|-------------------------------------|
B----|-1--------------0-0--0-0--1--1-------|
G----|-0--------0-----0-0--0-0--0----2--0--|
D----|-2--0-0h2-----------------2----------|
A----|-------------------------------------|
E----|-------------3-----------------------|
PreVerse                        A




E----|-------------------------------------------------------------------------------------|
B----|-----------------1-----------------1--1h3-1---1----------3br--1/3/1-------1h3/5------|
G----|--------------0--0--0-----0--------2--0h2-0---0---2---0--------------0h2-------------|
D----|----------0h2----2--0h2---0h2-0----3--------------3---2------------------------------|
A----|---0-3--3--------3-------------------------------------------------------------------|
E----|-3-----------------------------------------------------------------------------------|
Solo                 Pluck.....                Pluck....

E----|---3---3/8-----8/10\8----5----------------------------------------8/12-10--8----------|
B----|-5-----5/10---10/12\10---5--3-3/5-----3br-1---------1-1/3-5---5/8---------------------|
G----|----------------------------4-4/5--------------0h2------------------------------------|
D----|--------------------------------------------------------------------------------------|
A----|--------------------------------------------------------------------------------------|
E----|--------------------------------------------------------------------------------------|
Solo         Pluck....




E----|--------------------------|--|-------------------0--0-------|
B----|-1--------------0-0--0-0--|--|-1--------------0--1--3---1---|
G----|-0--------0-----0-0--0-0--|--|-0--------0-----0--0--0---0---|
D----|-2--0-0h2-----------------|--|-2--0-0h2-----------------2---|
A----|--------------------------|--|------------------------------|
E----|-------------3------------|--|-------------3----------------|
Ending                               A                 A  A   A            
Submit corrections

↑ Back to top | Tablatures and chords for acoustic guitar and electric guitar, ukulele, drums are parodies/interpretations of the original songs. You may use it for private study, scholarship, research or language learning purposes only