Home » C » Chris Isaak »

Chris Isaak - You Owe Me Some Kind Of Love Chords

Artists:  A B C D E F G H I J K L M N O P Q R S T U V W X Y Z # 

You Owe Me Some Kind Of Love Chords

(ver. 1) Click to play this song!
Chris Isaak
Song Title: You Owe Me Some Kind Of Love
Transcribbed On: Gibson Les Paul 6-String Electric
**************************************************************************************************
Standard Tuning										Pop/Rock

			     	        You Owe Me Some Kind Of Love
                                     As Preformed By:
                               Chris Isaak & The Silvertones

Signature Riff:
|------------| They use slight variations of this main riff all though the song. Sometimes they
|------------| hit the G string note twice or they will refrain to the D and back to the G, but
|--------1vv-| this riff will get you started. Just listen to the CD and you'll grab than Hang
|------3-----| Ten out it!
|----3-------|					Tab Key:   V= Vibrato      H=Hammer On
|--1---------|						     S= Slide	   P= Pull Off

Intro:
Fb chord fading with volume control. The it's a Fm chord overlayed with the main riff and a few
neck slides her and ther for variety.

Verse 1:
Fm                                          Fm
Think of all the things we've done and now, you've decided I'm not the one.
Fm                                    Fm
A love like ours just can't go wrong, run away baby have your fun but,
Fm           Bbm                         Fm
I, I, I, I, don't wana hurt you I don't wanna see you cry.
Fm          Bbm                   Fm			Signautre Riff
I, I, I, I, just wanna hold your love tonight.
Fm                               Signature Riff
You owe me some kind of love.

Verse 2:
Fm                                           Fm
I don't want to see you sad I don't want ya, feeling down I only want ya,
Fm                                  Fm
To say you love me and you need me, the way I love you please believe me.
Fm           Bbm                         Fm
I, I, I, I, don't wana hurt you I don't wanna see you cry.
Fm          Bbm                   Fm			Signature Riff
I, I, I, I, just wanna hold your love tonight.
Fm                               Signature Riff
You owe me some kind of love.
Fm
You owe me some kind of love.

Solo 1: Fm
|--------------------------------|--------------------------------|
|--18-18--13-13-6-6-1s4-6-6-4-6--|--18-18--13-13-6-6-1s4-6-6-4-6--|
|--------------------------------|--------------------------------|
|--------------------------------|--------------------------------|
|--------------------------------|--------------------------------|
|--------------------------------|--------------------------------|

|--------------------------------|---------------------------------------------------------1--|
|--13-13-13-13--6-6-1s4-6-6-4-6--|--18-18--13-13-6-6-1s4s1----------1s4s1------------------1--|
|--------------------------------|-------------------------3-1-1----------3-1-1------------1--|
|--------------------------------|-----------------------------------------------1h3-3-1---3--|
|--------------------------------|-------------------------------------------------------1-3--|
|--------------------------------|---------------------------------------------------------1--|

Verse 3:
Fm                                          Fm
Think of all the things we've done and now, you've decided I'm not the one.
Fm                                    Fm
A love like ours just can't go wrong, run away baby have your fun but,
Fm           Bbm                         Fm
I, I, I, I, don't wana hurt you I don't wanna see you cry.
Fm           Bbm                        Fm
I, I, I, I, just want you back I don't want to fight.
Fm		Bbm                  Fm                Signature Riff
I, I, I, I, just wanna hold you love tonight.
Fm						Signautre Riff
You owe me some kind of love.
Fm						Signature Riff
You owe me some kind of love.
Fm
Help!

Solo 2: Fm
|----------------------------------------|--------------------------------------|
|--18-18-18-18--13-13-13-13--10------10--|--13-13-13-13--10-10-9-10-10-10-9-10--|
|--17-17-17-17--13-13-13-13--10--13--10--|--13-13-13-13--10-10-9-10-10-10-9-10--|
|--------------------------------13------|--------------------------------------|
|----------------------------------------|--------------------------------------|
|----------------------------------------|--------------------------------------|

|----------------------------------------|--------------------------------------|
|--18-18-18-18--13-13-13-13--10------10--|--13-13-13-13--10-10-9-10-10-10-9-10--|
|--17-17-17-17--13-13-13-13--10--13--10--|--13-13-13-13--10-10-9-10-10-10-9-10--|
|--------------------------------13------|--------------------------------------|
|----------------------------------------|--------------------------------------|
|----------------------------------------|--------------------------------------|

|------------------------------------------|  Lead needs to use distortion on this last solo
|--18-18--13-13--10-10-9-10-10-10-10-9-10--|  to really nail a blues kind of riff.
|--17-17--13-13--10-10-9-10-10-10-10-9-10--|
|------------------------------------------|
|------------------------------------------|
|------------------------------------------|

|------------------------------------1-------------1-------------1-------------1------------1--|
|--18-18--13-13--10-10-9-10-10-10-9--1-------------1-------------1-------------1------------1--|
|--17-17--13-13--10-10-9-10-10-10-9--1----1-1------1----1-1------1----1-1------1----1-1-1---1--|
|------------------------------------3---3---------3---3---------3---3---------3---3-----3--3--|
|------------------------------------3--3----------3--3----------3--3----------3--3-------3-3--|
|------------------------------------1-1------1s12-1-1------1s12-1-1------1s12-1-1----------1--|
Forever & Ever!
************************************************************************************************
I realize this song may seem hard to understand so if you want to chat about it, write me!!!!!!!
              /\/\/\/\/\Never Do Today What You Can Put Off Til' Tomorrow/\/\/\/\/\
              \/\/\/\/\/*************************************************\/\/\/\/\/
************************************************************************************************
This file originated from "SilverTone Records" 
            
Submit corrections

↑ Back to top | Tablatures and chords for acoustic guitar and electric guitar, ukulele, drums are parodies/interpretations of the original songs. You may use it for private study, scholarship, research or language learning purposes only