Home » C » Chiodos »

Chiodos - Were Gonna Have Us A Champagne Jam Tabs

Artists:  A B C D E F G H I J K L M N O P Q R S T U V W X Y Z # 

Were Gonna Have Us A Champagne Jam Tabs

(ver. 1) Click to play this song!
Chiodos
(Intro)
this is pretty much my first tab, its an amazing intro and not hard at all once you
get the picking down. im pretty sure this is 100% accurate

---------------------15-15-15-14-14-14-------12-12-------------------15-15-15----------14-14-15-15---|
------------12-12-12-------------------15-15----------------12-12-12---------------------------------|
---10-10-10----------------------------------------10-10-10------------------------------------------|

---------------------15-15-15-14-14-14-14-14-14-14----------12-12-12-------10-10-10-10-10-10-10------|
------------12-12-12-------------------------------------------------10-10---------------------------|
---13-13-13------------------------------------------------------------------------------------------|
---------------------------------------------------10-10-10------------------------------------------|

---------------------15-15-15-14-14-14-------12-12-------------------15-15-15----------------15-15---|
------------12-12-12-------------------15-15----------------12-12-12---------------------------------|
---10-10-10----------------------------------------10-10-10------------------------------------------|

---------------------15-15-15-14-14-14-14-14-14-14----------12-12-12-------10-10-10-10-10-10-12------|
------------12-12-12-------------------------------------------------12-12---------------------------|
---13-13-13------------------------------------------------------------------------------------------|
---------------------------------------------------10-10-10------------------------------------------|
            
Submit corrections

↑ Back to top | Tablatures and chords for acoustic guitar and electric guitar, ukulele, drums are parodies/interpretations of the original songs. You may use it for private study, scholarship, research or language learning purposes only