» » »

Chiodos - If I Cut My Hair, Hawaii Will Sink Tabs

Artists:  A B C D E F G H I J K L M N O P Q R S T U V W X Y Z # 

If I Cut My Hair, Hawaii Will Sink Tabs

(ver. 1) Click to play this song!
Chiodos
 Rating:
4/5 (4 votes)

 If I Cut My Hair, Hawaii Will Sink lessons Tabs too difficult? Try these video lessons and learn fast
 
                -------------------------------------------------------------------------------
                Chiodos - If I Cut My Hair, Hawaii Will Sink
-------------------------------------------------------------------------------

Tuning: DADGBe (Drop D)

I changed the tuning because of one part, I'm extremely lazy so sorry it took me so long 
it.

Guitar Part 1:

         4x                                     4x
e|------------------|--------------------------------------------------------|
B|------------------|--------------------------------------------------------|
G|.5-5-5-5-5-5-5-5-.|.5-5-5-5-5-5-5-5-5-5-5-5-5-5-5-5-5-5-5-5-5-5-5-5-5-5-5-5|
D|.7-7-7-7-7-7-7-7-.|.7-7-7-7-7-7-7-7-7-7-7-7-7-7-7-7-7-7-7-7-7-7-7-7-7-7-7-7|
A|-7-7-7-7-7-7-7-7--|-7-7-7-7-7-7-7-7-7-7-7-7-7-7-7-7-7-7-7-7-7-7-7-7-7-7-7-7|
D|-7-7-7-7-7-7-7-7--|-7-7-7-7-7-7-7-7-9-9-9-9-9-9-9-9-7-7-7-6-6-6-7-7-7-7-7-7|
  PM.........................................................................

                          (repeat not staccato, wouldn't fit)   x2
e|----------|.--------------------------------------------------------------.|
B|----------|.--------------------------------------------------------------.|
G|-5-5-5-5-.|-----------------4-4-4-4-4-4-4-4-5-5-5-5-5-5-5-51010101010101010|
D|-7-7-7-7-.|-7-7-7-7-7-7-7-7-4-4-4-4-4-4-4-4-5-5-5-5-5-5-5-51010101010101010|
A|-7-7-7-7--|-7-7-7-7-7-7-7-7-2-2-2-2-2-2-2-2-3-3-3-3-3-3-3-3-8-8-8-8-8-8-8-8|
D|-7-7-7-7--|-7-7-7-7-7-7-7-7------------------------------------------------|
  ........
            x4                              x2
e|-------------------------|--------------------------------------------|----|
B|--------.-------.-.--.---|------------------------------------.-.--.--|----|
G|.---.-5-5---.-9-9-10-10-.|.---.---.---.---.---.---.---.---.-9-9-10-10.|----|
D|.-7-7-5-5-6-6-9-9-10-10-.|.-7-7-6-6-7-7-0-0-0-0-7-7-6-6-7-7-9-9-10-10.|-7~-|
A|--7-7-3-3-6-6-7-7-8--8---|--7-7-6-6-7-7-0-0-0-0-7-7-6-6-7-7-7-7-8--8--|-7~-|
D|--7-7-----6-6------------|--7-7-6-6-7-7-0-0-0-0-7-7-6-6-7-7-----------|-7~-|
                                         PM  PM

         3x                                     3x
e|------------------|--------------------------------------------------------|
B|------------------|--------------------------------------------------------|
G|.5-5-5-5-5-5-5-5-.|.5-5-5-5-5-5-5-5-5-5-5-5-5-5-5-5-5-5-5-5-5-5-5-5-5-5-5-5|
D|.7-7-7-7-7-7-7-7-.|.7-7-7-7-7-7-7-7-7-7-7-7-7-7-7-7-7-7-7-7-7-7-7-7-7-7-7-7|
A|-7-7-7-7-7-7-7-7--|-7-7-7-7-7-7-7-7-7-7-7-7-7-7-7-7-7-7-7-7-7-7-7-7-7-7-7-7|
D|-7-7-7-7-7-7-7-7--|-7-7-7-7-7-7-7-7-9-9-9-9-9-9-9-9-7-7-7-6-6-6-7-7-7-7-7-7|
  PM.........................................................................
                        x4              x4 then x8 (change length of notes)
e|----------|-------------------------|----------------|----|
B|----------|--------.-------.-.--.---|----------------|----|
G|-5-5-5-5-.|.---.-5-5---.-9-9-10-10-.|.---5---9-10-9-.|----|
D|-7-7-7-7-.|.-7-7-5-5-6-6-9-9-10-10-.|.-7-5-6-9-10-9-.|-7~-|
A|-7-7-7-7--|--7-7-3-3-6-6-7-7-8--8---|--7-3-6-7-8--7--|-7~-|
D|-7-7-7-7--|--7-7-----6-6------------|--7---6---------|-7~-|
  ........

Guitar Part 2:

         4x                                     4x
e|------------------|--------------------------------------------------------|
B|------------------|--------------------------------------------------------|
G|.5-5-5-5-5-5-5-5-.|.5-5-5-5-5-5-5-5-5-5-5-5-5-5-5-5-5-5-5-5-5-5-5-5-5-5-5-5|
D|.7-7-7-7-7-7-7-7-.|.7-7-7-7-7-7-7-7-7-7-7-7-7-7-7-7-7-7-7-7-7-7-7-7-7-7-7-7|
A|-7-7-7-7-7-7-7-7--|-7-7-7-7-7-7-7-7-7-7-7-7-7-7-7-7-7-7-7-7-7-7-7-7-7-7-7-7|
D|-7-7-7-7-7-7-7-7--|-7-7-7-7-7-7-7-7-9-9-9-9-9-9-9-9-7-7-7-6-6-6-7-7-7-7-7-7|
  PM.........................................................................

                          (repeat not staccato, wouldn't fit)      2x
e|----------|.--------------------------------------------------------------.|
B|----------|.--------------------------------------------------------------.|
G|-5-5-5-5-.|-9-9-9-9-9-9-9-9-9-9-9-9-9-9-9-9-9-9-9-9-9-9-9-91010101010101010|
D|-7-7-7-7-.|-x-x-x-x-x-x-x-x-x-x-x-x-x-x-x-x-x-x-x-x-x-x-x-x-x-x-x-x-x-x-x-x|
A|-7-7-7-7--|-7-7-7-7-7-7-7-7-7-7-7-7-7-7-7-7-7-7-7-7-7-7-7-7-8-8-8-8-8-8-8-8|
D|-7-7-7-7--|----------------------------------------------------------------|
  ........
            x4                              x2
e|-------------------------|--------------------------------------------|----|
B|--------.----------------|--------------------------------------------|----|
G|.---.-5-5---.---.-.-.---.|.---.---.---.---.---.---.---.---.---.-.-.--.|----|
D|.-7-7-5-5-6-6-2-2-3-5---.|.-7-7-6-6-7-7-0-0-0-0-7-7-6-6-7-7-2-2-3-5--.|-7~-|
A|--7-7-3-3-6-6-2-2-3-5----|--7-7-6-6-7-7-0-0-0-0-7-7-6-6-7-7-2-2-3-5---|-7~-|
D|--7-7-----6-6-2-2-3-5----|--7-7-6-6-7-7-0-0-0-0-7-7-6-6-7-7-2-2-3-5---|-7~-|
                                         PM  PM

         3x                                     3x
e|------------------|--------------------------------------------------------|
B|------------------|--------------------------------------------------------|
G|.5-5-5-5-5-5-5-5-.|.5-5-5-5-5-5-5-5-5-5-5-5-5-5-5-5-5-5-5-5-5-5-5-5-5-5-5-5|
D|.7-7-7-7-7-7-7-7-.|.7-7-7-7-7-7-7-7-7-7-7-7-7-7-7-7-7-7-7-7-7-7-7-7-7-7-7-7|
A|-7-7-7-7-7-7-7-7--|-7-7-7-7-7-7-7-7-7-7-7-7-7-7-7-7-7-7-7-7-7-7-7-7-7-7-7-7|
D|-7-7-7-7-7-7-7-7--|-7-7-7-7-7-7-7-7-9-9-9-9-9-9-9-9-7-7-7-6-6-6-7-7-7-7-7-7|
  PM.........................................................................

                         4x              4x then 4x (change length of notes)
e|----------|-------------------------|----------------|---------------------|
B|----------|--------.----------------|----------------|--5-5-5-5-5-5-5-5-5-5|
G|-5-5-5-5-.|.---.-5-5---.---.-.-.---.|.---5----------.|.--------------------|
D|-7-7-7-7-.|.-7-7-5-5-6-6-2-2-3-5---.|.-7-5-6-2-3-5--.|.--------------------|
A|-7-7-7-7--|--7-7-3-3-6-6-2-2-3-5----|--7-3-6-2-3-5---|---------------------|
D|-7-7-7-7--|--7-7-----6-6-2-2-3-5----|--7---6-2-3-5---|---------------------|
       x4
e|----------|----|
B|-5-5-6-5--|----|
G|---------.|----|
D|---------.|-7~-|
A|----------|-7~-|
D|----------|-7~-|

| /  slide up
| \  slide down
| h  hammer-on
| p  pull-off
| ~  vibrato
| +  harmonic
| x  Mute note
| PM. Above the PM and the dots means palm mute the notes.
| . On the line above the note means staccato the note.
| ~ Slide down
===============================================================================
            
Submit corrections


        If I Cut My Hair, Hawaii Will Sink lessons Hard to play? Try these video lessons and learn fast If I Cut My Hair, Hawaii Will Sink lessons
        
↑ Back to top | Tablatures and chords for acoustic guitar and electric guitar, ukulele, drums are parodies/interpretations of the original songs. You may use it for private study, scholarship, research or language learning purposes only