» » »

Chimaira - Pure Hatred Bass

Artists:  A B C D E F G H I J K L M N O P Q R S T U V W X Y Z # 

Pure Hatred Bass

(ver. 1) Click to play this song!
Chimaira
 Rating:
4/5 (4 votes)

 Pure Hatred  lessons Tabs too difficult? Try these video lessons and learn fast
 
                (1)
Tuning: B E A D G

Bass Intro/Verse x8 0:32
G|----------------------------------| 
D|----------------------------------| 
A|----------------------------------| 
E|----------------------------------| 
B|-5-5-5-4-4-4-6-6-6-4-4-4--3-3-3-3-|

Pre Chorus x4 0:53
G|-----------------------------------------| 
D|-----------------------------------------| 
A|-----------------------------------------| 
E|-----------------------------------------| 
B|-5-5-5-4-4-4-6-6-6-4-4-4-0-0-0-0-0-0-0-0-|

No Bass for 2 seconds (1:04-1:06)

Chorus 1:06
G|----------------------------------------------------------| 
D|----------------------------------------------------------| 
A|----------------------------------------------------------| 
E|----------------------------------------------------------| 
B|-3-3-3-3-0-3-3-3-3-0--0--0--0--3-3-3-3-0-3-3-3-3-0-5-0-5--|

Chorus-2 1:11
G|--------------------------------------------------| 
D|--------------------------------------------------| 
A|--------------------------------------------------| 
E|--------------------------------------------------| 
B|-3-3-3-3-0-3-3-3-3-0--0--0--0--3-3-3-3-0-3-3-3-3--|

No Bass For 1 second (1:16-1:17)

Verse x4 1:17
G|----------------------------------| 
D|----------------------------------| 
A|----------------------------------| 
E|----------------------------------| 
B|-5-5-5-4-4-4-6-6-6-4-4-4--3-3-3-3-|

Pre Chorus x4 1:28
G|-----------------------------------------| 
D|-----------------------------------------| 
A|-----------------------------------------| 
E|-----------------------------------------| 
B|-5-5-5-4-4-4-6-6-6-4-4-4-0-0-0-0-0-0-0-0-|

No Bass for 3 seconds (1:38-1:41)

Chorus 1:41
G|----------------------------------------------------------| 
D|----------------------------------------------------------| 
A|----------------------------------------------------------| 
E|----------------------------------------------------------| 
B|-3-3-3-3-0-3-3-3-3-0--0--0--0--3-3-3-3-0-3-3-3-3-0-5-0-5--|

Chorus-2 1:46
G|--------------------------------------------------| 
D|--------------------------------------------------| 
A|--------------------------------------------------| 
E|--------------------------------------------------| 
B|-3-3-3-3-0-3-3-3-3-0--0--0--0--3-3-3-3-0-3-3-3-3--|

Post Chorus 1:52 x2
G|----------------------------------------------------------| 
D|----------------------------------------------------------| 
A|----------------------------------------------------------| 
E|----------------------------------------------------------| 
B|-3-3-3-3-0-3-3-3-3-0--0--0--0--3-3-3-3-0-3-3-3-3-0-5-0-5--|

No Bass for 2 seconds (2:02-2:04)

Pre-Bridge 2:04
G|-------| 
D|-------| 
A|-------| 
E|-------| 
B|-3/6/0-|

Bridge x3 2:05
G|----------------------------| 
D|----------------------------| 
A|----------------------------| 
E|----------------------------| 
B|-5-5-0-6--5-0-0-7-6-0-0-0-0-|

Bridge-2 2:13
G|------------------------------| 
D|------------------------------| 
A|------------------------------| 
E|------------------------------| 
B|-5-5-0-6--5-0-0-7-6-7-6-7-6-8-|

Bridge x3 2:16
G|----------------------------| 
D|----------------------------| 
A|----------------------------| 
E|----------------------------| 
B|-5-5-0-6--5-0-0-7-6-0-0-0-0-|

Bridge-3 2:24
G|----------------------|
D|----------------------|
A|----------------------|
E|----------------------|
B|-5-5-0-6--5-0-0-7-6-5-|

Bridge-4 2:26
G|-----------------------|
D|-----------------------|
A|-----------------------|
E|-----------------------|
B|-0-0--0-0--0-0--0-0--0-|

Verse x4 2:29
G|----------------------------------| 
D|----------------------------------| 
A|----------------------------------| 
E|----------------------------------| 
B|-5-5-5-4-4-4-6-6-6-4-4-4--3-3-3-3-|

Pre Chorus x4 2:40
G|-----------------------------------------| 
D|-----------------------------------------| 
A|-----------------------------------------| 
E|-----------------------------------------| 
B|-5-5-5-4-4-4-6-6-6-4-4-4-0-0-0-0-0-0-0-0-|

No Bass for 3 seconds (2:50-2:53)

Chorus 2:53
G|----------------------------------------------------------| 
D|----------------------------------------------------------| 
A|----------------------------------------------------------| 
E|----------------------------------------------------------| 
B|-3-3-3-3-0-3-3-3-3-0--0--0--0--3-3-3-3-0-3-3-3-3-0-5-0-5--|

Chorus-2 2:58
G|------------------------------------------------------------| 
D|------------------------------------------------------------| 
A|------------------------------------------------------------| 
E|------------------------------------------------------------| 
B|-3-3-3-3-0-3-3-3-3-0--0--0--0--3-3-3-3-0-3-3-3-3-0-5-0-5-5~-|

Chorus 3:04
G|----------------------------------------------------------| 
D|----------------------------------------------------------| 
A|----------------------------------------------------------| 
E|----------------------------------------------------------| 
B|-3-3-3-3-0-3-3-3-3-0--0--0--0--3-3-3-3-0-3-3-3-3-0-5-0-5--|

Chorus-2 3:09
G|-----------------------------------------------------------| 
D|-----------------------------------------------------------| 
A|-----------------------------------------------------------| 
E|-----------------------------------------------------------| 
B|-3-3-3-3-0-3-3-3-3-0--0--0--0--3-3-3-3-0-3-3-3-3-0-5-0-5/2-|

Outro (3:15, 3:25, 3:36, 3:46, 3:57, 4:08)
G|------------------------------------------------------------------------| 
D|------------------------------------------------------------------------| 
A|------------------------------------------------------------------------| 
E|------------------------------------------------------------------------| 
B|-3--0-0--3-3-3-3---3-3-3-3-0-0-0-0-3--0-0--3-3-3-3---3-3-3-3-0--0--0--0-|

Outro-2 (3:20, 3:30, 3:41, 3:52, 4:02, 4:13)
G|-------------------------------------------------------------| 
D|-------------------------------------------------------------| 
A|-------------------------------------------------------------| 
E|-------------------------------------------------------------| 
B|-3--0-0--3-3-3-3---3-3-3-3-0-0-0-0-5-5-5-5-5-5-7-7-7-5-5-5/0-|

(Play The two Outro parts 6 times, and start to fade at 4th time playing)

Great song to play, enjoy..
Rate This Tab Plz...
            
Submit corrections


        Pure Hatred  lessons Hard to play? Try these video lessons and learn fast Pure Hatred  lessons
        
↑ Back to top | Tablatures and chords for acoustic guitar and electric guitar, ukulele, drums are parodies/interpretations of the original songs. You may use it for private study, scholarship, research or language learning purposes only