» » »

Chic - My Forbidden Lover Tabs

Artists:  A B C D E F G H I J K L M N O P Q R S T U V W X Y Z # 

My Forbidden Lover Tabs

(ver. 1) Click to play this song!
Chic
 Rating:
4.4/5 (5 votes)

 My Forbidden Lover lessons Tabs too difficult? Try these video lessons and learn fast
 
                Guitar 1
       1  2  3  4  1  2  3  4  
e|-----5-----5-----7-----7-----|
B|-----5-----5-----7-----8-----|
G|-----x-----5-----7-----7-----|
D|-----4-----5-----7-----9-----|
A|-----4-----5-----9-----7-----|
E|-----x-----x-----x-----x-----|

Guitar 2
     1   2   3    4   1   2   3      4  
     . .     . ..     . .     . ...     
e|---5-5-5---8-88-8---7-7-7---7-777--10--|
B|---5-5-5---8-88-8---7-7-7---8-888--8---|
G|---4-4-4---7-77-7---7-7-7---7-777--7---|
D|---x-x-x---x-xx-x---x-x-x---x-xxx--x---|
A|---x-x-x---x-xx-x---x-x-x---x-xxx--x---|
E|---x-x-x---x-xx-x---x-x-x---x-xxx--x---|

Leading into the verse
     1   2    
e|---5-------|
B|---5-------|
G|---6-------|
D|---7-------|
A|---x-------|
E|---x-------|

Verse:
     1     2          3    4        1     2        3     4        
     .  .     . . .      . .  . .      .  .  . .      .  .  . .   
e|---x--x--x--x-x-x---x--x-x--x-x---x--x--x--x-x---5--5--5--5-5-5---|
B|---7--7--7--7-7-7--10-1010-1010---5--5--5--5-5---5--5--5--5-5-5---|
G|---7--7--7--7-7-7---7--7-7--7-7---7--7--7--7-7---6--6--6--6-6-6---|
D|---9--9--9--9-9-9---9--9-9--9-9---5--5--5--5-5---x--x--x--x-x-x---|
A|---x--x--x--x-x-x---x--x-x--x-x---x--x--x--x-x---x--x--x--x-x-x---|
E|---x--x--x--x-x-x---x--x-x--x-x---x--x--x--x-x---x--x--x--x-x-x---|            
Submit corrections


        My Forbidden Lover lessons Hard to play? Try these video lessons and learn fast My Forbidden Lover lessons
        
↑ Back to top | Tablatures and chords for acoustic guitar and electric guitar, ukulele, drums are parodies/interpretations of the original songs. You may use it for private study, scholarship, research or language learning purposes only