» » »

Chic - Le Freak Bass

Artists:  A B C D E F G H I J K L M N O P Q R S T U V W X Y Z # 

Le Freak Bass

(ver. 3) Click to play this song!
Chic
 Rating:
4/5 (4 votes)


 Le Freak lessons Tabs too difficult? Try these video lessons and learn fast
 
                


INTRO
x4
G|----------------|
D|----------------|
A|----------------|
E|--3-5\-------3-5|

G|--------------------|
D|---7----------------|
A|--------------------|
E|3/5--0-----3---3-4--|


VERSE ONE
x8
G|-------------------------------------------|
D|-------------------------------------------|
A|--------3-3---------5---5--------3---3-----|
E|5---3-5-----5-3-5---------3-55----------3-3|


CHORUS 
X1
G|--------------|
D|--------------|
A|--------------|
E|--5\-------3-5|

X3
G|----------------|
D|----------------|
A|----------------|
E|--3-5\-------3-5|

G|------------------|
D|---7--------------|
A|------------------|
E|3/5--0-----3---3-4|


VERSE TWO 
x3
G|----------------------------------------|
D|----------------------------------------|
A|--------3-3---------5---5------3---3----|
E|5---3-5-----5-3-5---------3-55-------3-3|

G|-------------------------------------5---|
D|-----------------------------5--5/7------|
A|---------3-3--------5---5----------------|
E|5---3-5-----5-3-5----------------------33|

X4
G|---------------------------------------------|
D|---------------------------------------------|
A|---------3-3---------5---5--------3---3------|
E|5---3-5-----5-3-5----------3-55-----------3-3|


CHORUS
G|--------------|
D|--------------|
A|--------------|
E|--5\-------3-5|

G|----------------|
D|----------------|
A|----------------|
E|--3-5-------3-5\|

G|---------------|
D|---------------|
A|---------------|
E|--3-5-------3-5|

G|----------------|
D|----------------|
A|----------------|
E|--3-5\-------3-5|

G|------------------|
D|---7--------------|
A|------------------|
E|3/5--0-----3---3-4|


MIDDLE EIGHT
X2
G|5--5---5--5-------5--5---5--5-------5--5---5--5--------5--5---5--5------|
D|-----7---7--7----------7---7--7----------7---7--7-----------7---7--7----|
A|----------------------------------5-----------------5-------------------|
E|----------------5------------------------------------------------------5|
 
X2
G|5--5---5--5-------5--5---5--5-------5--5---5--5------5--5---5--5-----|
D|----7---7--------------7---7-------------7---7------------7--7-------|
A|--------------------------------5------------------5-----------------|
E|--------------5-----------------------------------------------------5|

X2
G|5--5---5--5-------5--5---5--5-------5--5---5--5--------5--5---5--5------|
D|----7---7--7-----------7---7--7----------7---7--7-----------7---7--7----|
A|---------------------------------5-----------------5--------------------|
E|---------------5-------------------------------------------------------5|

G|5--5---5--5-------5--5---5--5-------5--5---5--5------5--5---5--------7------|
D|-----7---7--7----------7---7--7----------7---7--7---------7---7----7--------|
A|---------------------------------5-----------------5------------------------|
E|----------------5----------------------------------------------------------5|

G|5--5---5--5-------5--5---5--5-------5--5---5--5------5--5---5---/12------|
D|-----7---7-------------7---7-------------7---7------------7--7-----------|
A|--------------------------------5----------------5-----------------------|
E|--------------5--------------------------------------------------------55|

G|5--5---5---5-------5--5---5--5-------5--5---5--5------------------------------|
D|-----7---7--------------7---7-------------7---7------------------7------------|
A|---------------------------------5------------------5/-\----------------------|
E|--------------5-----------------------------------------------3-5---0--3---3-3|


REPEAT VERSE TWO


OUTRO
G|---------------|
D|---------------|
A|---------------|
E|---5\-------3-5|

G|----------------|
D|----------------|
A|----------------|
E|--3-5\-------3-5|

G|----------------|
D|----------------|
A|----------------|
E|--3-5-------3-5\|

G|----------------|
D|------------5-7-|
A|----------------|
E|--3-5\----------|

G|----------------|
D|----------------|
A|----------------|
E|--3-5\-------3-5|

G|---------------|
D|---------------|
A|---------------|
E|--3-5-------3-5|

G|--------------------|
D|---7----------------|
A|--------------------|
E|3/5--0-----3---3-4--|

G|----------------|
D|----------------|
A|----------------|
E|---5\-------3-5-|

G|----------------|
D|----------------|
A|----------------|
E|--3-5\-------3-5|


| /  slide up
| \  slide down
| h  hammer-on 
| p  pull-off 
| ~  vibrato 
| +  harmonic 
| x  Mute note
            
Submit corrections



        Le Freak lessons Hard to play? Try these video lessons and learn fast Le Freak lessons
        
↑ Back to top | Tablatures and chords for acoustic guitar and electric guitar, ukulele, drums are parodies/interpretations of the original songs. You may use it for private study, scholarship, research or language learning purposes only