Home » C » Chic »

Chic - Ill Be There Bass

Artists:  A B C D E F G H I J K L M N O P Q R S T U V W X Y Z # 

Ill Be There Bass

(ver. 1) Click to play this song!
Chic
Intro

G|-------------------------------------------------------------------------------------------------------------|
D|--------------7x-------------7x-------------7x-------------7x-------------7x------------7x------------x7-----|
A|---------3--------------3--------------3--------------3--------------3-------------3--------------3----------|
E|-5--0-3h5--------5-0-3h5--------5-0-3h5--------5-0-3h5--------5-0-3h5--------5-03h5--------5-0-3h5-------5-5-|

Chorus

G|----------------------------------------------------------------|
D|-------------7--------------------------------------------------|
A|----------3-----------3--3-4-5--5-3h5p3---3-4-5--3-5-5/7----5h7-|
E|-5//-0-3h5--5-5-3--3--------------------------------------0-----|

G|-------------------------------------------------------slap-|
D|----------7--------------------------------------------5h7--|
A|-------3-----------3--3-4-5--5-3h5p3---x3-5--x5-5/7---------|
E|-00-3h5--5-5-3--3------------------------------------0------|

Verse

G|-----------------------------------------------------------|
D|----------7--------------------------------------------5h7-|
A|-------3----------x3--3-4-5--5-3h5p3---x3-5--x5-5/7--------|
E|-00-3h5--5-5-3--3------------------------------------0-----|

G|-------5//---------------------------------------------------|
D|----5h7----5h7x------------------------------------------5h7-|
A|-5h7-----------------x3--3-4-5--5-3h5p3---x3-5--x5-5/7-------|
E|----------------3--3------------------------------------0----|

G|-------5//-----------------------------------------------slap-|
D|----5h7----5h7x------------------------------------------5h7--|
A|-5h7-----------------x3--3-4-5--5-3h5p3---x3-5--x5-5/7--------|
E|----------------3--3------------------------------------0-----|

G|-----------------------------------------------------------|
D|----------7--------------------------------------------5h7-|
A|-------3----------x3--3-4-5--5-3h5p3---x3-5--x5-5/7--------|
E|-00-3h5--5-5-3--3------------------------------------0-----|

G|-------5//-------------------------------------------------slap-|
D|----5h7----5h7x--------------------------------------slap--5h7--|
A|-5h7-----------------x3--3-4-5--5-3h5p3---x3-5--------5h7-------|
E|----------------3--3--------------------------------------------|

Chorus

G|-----------------------------------------------------------|
D|----------7--------------------------------------------5h7-|
A|-------3----------x3--3-4-5--5-3h5p3---x3-5--x5-5/7--------|
E|-00-3h5--5-5-3--3------------------------------------0-----|

G|-------5//-----------------------------------------------slap-|
D|----5h7----5h7x------------------------------------------5h7--|
A|-5h7-----------------x3--3-4-5--5-3h5p3---x3-5--x5-5/7--------|
E|----------------3--3------------------------------------0-----|

Verse

G|-----------------------------------------------------------|
D|----------7--------------------------------------------5h7-|
A|-------3----------x3--3-4-5--5-3h5p3---x3-5--x5-5/7--------|
E|-00-3h5--5-5-3--3------------------------------------0-----|

G|-------5//---------------------------------------------------|
D|----5h7----5h7x------------------------------------------5h7-|
A|-5h7-----------------x3--3-4-5--5-3h5p3---x3-5--x5-5/7-------|
E|----------------3--3------------------------------------0----|

G|-------5//-----------------------------------------------slap-|
D|----5h7----5h7x------------------------------------------5h7--|
A|-5h7-----------------x3--3-4-5--5-3h5p3---x3-5--x5-5/7--------|
E|----------------3--3------------------------------------0-----|

G|-----------------------------------------------------------|
D|----------7--------------------------------------------5h7-|
A|-------3----------x3--3-4-5--5-3h5p3---x3-5--x5-5/7--------|
E|-00-3h5--5-5-3--3------------------------------------0-----|

G|-------5//-------------------------------------------------slap-|
D|----5h7----5h7x--------------------------------------slap--5h7--|
A|-5h7-----------------x3--3-4-5--5-3h5p3---x3-5--------5h7-------|
E|----------------3--3--------------------------------------------|

Chorus

G|-----------------------------------------------------------|
D|----------7--------------------------------------------5h7-|
A|-------3----------x3--3-4-5--5-3h5p3---x3-5--x5-5/7--------|
E|-00-3h5--5-5-3--3------------------------------------0-----|

G|-------5//-----------------------------------------------slap-|
D|----5h7----5h7x------------------------------------------5h7--|
A|-5h7-----------------x3--3-4-5--5-3h5p3---x3-5--x5-5/7--------|
E|----------------3--3------------------------------------0-----|

Riff

G|-----------------------------------------------------------|
D|----------7--------------------------------------------5h7-|
A|-------3----------x3--3-4-5--5-3h5p3---x3-5--x5-5/7--------|
E|-00-3h5--5-5-3--3------------------------------------0-----|

G|-------5//-----------------------------------------------slap-|
D|----5h7----5h7x------------------------------------------5h7--|
A|-5h7-----------------x3--3-4-5--5-3h5p3---x3-5--x5-5/7--------|
E|----------------3--3------------------------------------0-----|

Bass Solo


G|-----------------------------------------------------------|
D|----------7--------------------------------------------5h7-|
A|-------3----------x3--3-4-5--5-3h5p3---x3-5--x5-5/7--------|
E|-00-3h5--5-5-3--3------------------------------------0-----|

G|-------5//---------------------------------------------------|
D|----5h7----5h7x------------------------------------------5h7-|
A|-5h7-----------------x3--3-4-5--5-3h5p3---x3-5--x5-5/7-------|
E|----------------3--3------------------------------------0----|

G|-----------------------------------------------------------|
D|----------7--------------------------------------------5h7-|
A|-------3----------x3--3-4-5--5-3h5p3---x3-5--x5-5/7--------|
E|-00-3h5--5-5-3--3------------------------------------0-----|

G|-------5//-------------------------------------------------slap-|
D|----5h7----5h7x--------------------------------------slap--5h7--|
A|-5h7-----------------x3--3-4-5--5-3h5p3---x3-5--------5h7-------|
E|----------------3--3--------------------------------------------|

Chorus

G|-----------------------------------------------------------|
D|----------7--------------------------------------------5h7-|
A|-------3----------x3--3-4-5--5-3h5p3---x3-5--x5-5/7--------|
E|-00-3h5--5-5-3--3------------------------------------0-----|

G|-------5//-----------------------------------------------slap-|
D|----5h7----5h7x------------------------------------------5h7--|
A|-5h7-----------------x3--3-4-5--5-3h5p3---x3-5--x5-5/7--------|
E|----------------3--3------------------------------------0-----|            
Submit corrections

↑ Back to top | Tablatures and chords for acoustic guitar and electric guitar, ukulele, drums are parodies/interpretations of the original songs. You may use it for private study, scholarship, research or language learning purposes only