Home » C » Chic »

Chic - Everybody Dance Bass

Artists:  A B C D E F G H I J K L M N O P Q R S T U V W X Y Z # 

Everybody Dance Bass

(ver. 1) Click to play this song!
Chic
CHIC - Everybody Dance (1978)

Intro - Pick
G------3555------3555----35----35---------------------------------|
D---------------------------------------------------88-------8----|
A-3-33------3-33------33----33----333321---------------8---8------|
E---------------------------------------4---5---6--------6--------|

"Everybody Dance..."
G-----------------------------------------------------------------|
D------------------------------------88-------8-------------------|
A-33----33----33----33--321-------------8---8---------------------|
E------3-----3-----3---3---4---5---6------6-----------------------|

"Music never lets you down..."
G-----------------------------------------------------------------|
D-----5-8---------------------------------------------------------|
A-6-8-------------------------------------------------------------|
E---------6---6-88---1-3-321-1-1-1-1-1-1-1-1----------------------|

"Everybody Dance..." Keep playing the pattern and improvise at the
ending of the bassline.
G-----------------------------------------------------------------|
D------------------------------------678--------------------------|
A-33----33----33----33--321--------------8------------------------|
E------3-----3-----3---3---4---5---6-------6----------------------|

Solo - Pick
G------3555------3555----77----88----77-----55--------------------|
D--------------------------------------------------------678------|
A-3-33------3-33------3/5---5/6---6\5---5\3------------------8----|
E----------------------------------------------4---5---6-------6--|

G------3555------3555---5--55-------------------------------------|
D-------------------------------------------------678-------------|
A-3-33------3-33------33-33----333321-----------------8-----------|
E---------------------------------------4---5---6-------6---------|
            
Submit corrections

↑ Back to top | Tablatures and chords for acoustic guitar and electric guitar, ukulele, drums are parodies/interpretations of the original songs. You may use it for private study, scholarship, research or language learning purposes only