» » »

Chevelle - Mia Tabs

Artists:  A B C D E F G H I J K L M N O P Q R S T U V W X Y Z # 

Mia Tabs

(ver. 2) Click to play this song!
Chevelle
 Rating:
4/5 (4 votes)

 Mia lessons Tabs too difficult? Try these video lessons and learn fast
 
                Drop-D Tuning
// = slide
h= hammer-on 
(x)= use extra note for better sound

-There are three basic parts to the song.
-Listen to the CD for strumming and how many times you strum, as I am only indicating the chords. So mess around with them until you get the sound you want.
-I’ve seen these guys live and how they play it so this should be pretty accurate. Check them out in concert if you ever get a chance!
 
~~~ The Intro / Verses
Use swift up-and-down strokes. It is important to the sound if you hit only the D a and d strings. 
 
e ----------------------------------------------------------------------------------
b ----------------------------------------------------------------------------------
g -------(9)-//---(11)--//---(9)------(4)------------------------------------------
d--------9--//----11---//----9---------4------5-//---7---//--9-//--5--------------
a -------7--//-----9----//----7---------2------5-//---7--//---9-//---5-------------
D-----------------------------------------------5-//---7--//---9-//---5-------------
 
Play this over and over. It is very muted and quiet during 2nd verse and it is extra loud for the repeat of verse 2 after the bridge.
 
~~~ Chorus
*Bend the g up for effect. As usual, listen to the song to get timing right.
e ----------------------------------------
b ---------------------------------------      
g -----------4*-------------------------       
d --22-----(2)---------5h7-----------
a --22-----(2)---------5h7-----------
D---xx-----------------5h7-----------
 
~~~ Bridge/Interlude
Listen to strumming pattern for E chord
e----------------------------------
b---------------------------------
g---------------7-6-7-----------
d---2------------------7--------
a---2---------------------------
E--------------------------------
            
Submit corrections


        Mia lessons Hard to play? Try these video lessons and learn fast Mia lessons
        
↑ Back to top | Tablatures and chords for acoustic guitar and electric guitar, ukulele, drums are parodies/interpretations of the original songs. You may use it for private study, scholarship, research or language learning purposes only