» » »

Chevelle - Mia Tabs

Artists:  A B C D E F G H I J K L M N O P Q R S T U V W X Y Z # 

Mia Tabs

(ver. 1) Click to play this song!
Chevelle
 Rating:
4/5 (4 votes)

 Mia lessons Tabs too difficult? Try these video lessons and learn fast
 
                Chevelle
*Mia*
Piont #1
 
Standard Tuning
 
This song has basically three parts you must learn
 
PART 1-the intro, the verses
Up and down stroke, hit only e a and d strings. I am not putting exactly how many times you hit each chord. 
Listen to the CD for that.
 
e --------------------------------------------------------------------------------
b --------------------------------------------------------------------------------
g -------------------------------------------------------------------------------
d-------(11)--------99---------44---------22-------------------------------------
a -------99---------77---------22---------00-------55------77-------99------55---
E--0---let E ring out---------------------00------33-------55-------77------33---
 
Play this over and over. It is very muted and quiet during 2nd verse 
and it is extra loud for the repeat of verse 2
 
PART 2- Chorus
On this part you hit open e twice then bend the g string up till it is the same note as the 5th fret on B. 
Don't bend B just let it ring
 
e ----------
b ------- 5      
g ------- 7        
d -----------
a ---------
E---00----
                                                            Repeat both parts a few times
Play that 2x then play
e ---------------------
b ---------------------
g ----------------------
d ---------------------
a 55-----77------99-----55
E 33-----55------77-----33
 
 
PART 3- Bridge
Short and even down up strokes on open E
e-----------------
b---------------------
g---------------7-6-7-6-7
d---------------------
a-----------------------
E---00000000---------
            
Submit corrections


        Mia lessons Hard to play? Try these video lessons and learn fast Mia lessons
        
↑ Back to top | Tablatures and chords for acoustic guitar and electric guitar, ukulele, drums are parodies/interpretations of the original songs. You may use it for private study, scholarship, research or language learning purposes only