Home » C » Chelsea Grin »

Chelsea Grin - False Sense Of Sanity Tabs

Artists:  A B C D E F G H I J K L M N O P Q R S T U V W X Y Z # 

False Sense Of Sanity Tabs

(ver. 1) Click to play this song!
Chelsea Grin
Rhythm Guitar
 
Intro:
 
(0:00-0:01)
 
E |-------------------|
B |-------------------|
G |-------------------|
D |-------------------|
A |--1----------------|
E |--1-4-1-0-1-3-1-0--|
A |----4-1-0-1-3-1-0--|
 PM    . . . . . . .
 
Verse 1
 
(0:02-0:10)
 
E |-----------------------------------------------|
B |-----------------------------------------------|
G |-----------------------------------------------|
D |-----------------------------------------------|
A |--------------------------------------------6*-|
E |--0-3--6t--0-2--5t--0-1-0-3--6t--0-2--5t-------|
A |--0-3------0-2------0-1-0-3------0-2------0----|
 PM  . .      . .      . . . .      . .      .
 
E |-----------------------------------------------|
B |-----------------------------------------------|
G |-----------------------------------------------|
D |-----------------------------------------------|
A |-----------------------------------------------|
E |--0-3--6t--0-2--5t--0-1-0-3--6t--0-2--5t--0----|
A |--0-3------0-2------0-1-0-3------0-2------0----|
 PM  . .      . .      . . . .      . .      .
 
(0:11-0:20)
 
E |-------------------------------------------------------------------|
B |-------------------------------------------------------------------|
G |-------------------------------------------------------------------|
D |-------------------------------------------------------------------|
A |----------------------------------------------------------------6*-|
E |-----------6t-----------5t-------------------6t-----------5t-------|
A |--0-0-3-3------0-0-2-2------0-0-1-1-0-0-3-3------0-0-2-2------0----|
 
E |---------------------------------------------------------------------------------------|
B |---------------------------------------------------------------------------------------|
G |---------------------------------------------------------------------------------------|
D |---------------------------------------------------------------------------------------|
A |---------------------------------------------------------------------------------------|
E |-----------6t-----------5t-------------------6t-----------5t--0-1-0-3--6t--0-2--5t--0--|
A |--0-0-3-3------0-0-2-2------0-0-1-1-0-0-3-3------0-0-2-2------0-1-0-3------0-2------0--|
 PM                                                              . . . .      . .
 
Verse 2:
 
(0:21-0:39)
 
E |-------------------------------------------------------------------|
B |-------------------------------------------------------------------|
G |-------------------------------------------------------------------|
D |-------------------------------------------------------------------|
A |------------------------1------------------------------------------|
E |-------2t--1t-------0-1-1-3--------2t--1t-------6t--5t--2t--1t-----|
A |--1t-----------4t---0-1---3---1t-----------4t----------------------|
 PM                    . .   .
 
E |------------------------------------------------------------------------------------------------|
B |------------------------------------------------------------------------------------------------|
G |------------------------------------------------------------------------------------------------|
D |------------------------------------------------------------------------------------------------|
A |------------------------1-----------------------------------------------------------------------|
E |-------2t--1t-------0-1-1-3--------2t--1t-------6t--5t--2t--1t--6t--5t--2t--1t--0-0-0-0-0-0-0-0-|
A |--1t-----------4t---0-1---3---1t-----------4t-----------------------------------0-0-0-0-0-0-0-0-|
 PM                    . .   .                                                     . . . . . . . . 
 
Bridge
 
(0:40-0:56)
 
E |----------------------------------------------------------|
B |----------------------------------------------------------|
G |----------------------------------------------------------|
D |----------------------------------------------------------|
A |----------------------------------------------------------|
E |--1~----------2~-----6-5-3----1~----------2~-----6--5--3--|
A |--1~----------2~-----6-5-3----1~----------2~-----6--5--3--|
 PM                     . .                         .  .  .
 
E |----------------------------------------------------------------|
B |----------------------------------------------------------------|
G |----------------------------------------------------------------|
D |--8~----------9~-----13-12-10----8~----------9~-----13--12--10--|
A |----------------------------------------------------------------|
E |--6~----------7~-----11-10-8-----6~----------7~-----11--10--8---|
A |----------------------------------------------------------------|
 
Breakdown 1
 
(0:58-1:14)
 
E |----------------------------------------------------------------------------------|
B |----------------------------------------------------------------------------------|
G |----------------------------------------------------------------------------------|
D |----------------------------------------------------------------------------------|
A |----------------------------------------------------------------------------------|
E |--0-0--0---0---0--0-0---0~-----------0-0--0---0---0---0-0---0~---1-1-1-1-1-1-1-1--|
A |--1-1--1---1---1--1-1---1~-----------1-1--1---1---1---1-1---1~---0-0-0-0-0-0-0-0--|
 PM  . .  .   .   .  . .   .            . .  .   .   .   . .   .    . . . . . . . . 
 
E |----------------------------------------------------------------------------|
B |----------------------------------------------------------------------------|
G |----------------------------------------------------------------------------|
D |----------------------------------------------------------------------------|
A |----------------------------------------------------------------------------|
E |--0-0--0---0---0--0-0---0~-----------0-0--0---0---0---0-0---0~--------------|
A |--1-1--1---1---1--1-1---1~-----------1-1--1---1---1---1-1---1~---0---0---0--|
 PM  . .  .   .   .  . .   .            . .  .   .   .   . .   .
 
Pre-Solo
 
(1:15-1:16)
 
E |-------------------|
B |-------------------|
G |-------------------|
D |-------------------|
A |-------------------|
E |--1-1-1-1-1-1-1-1--|
A |--0-0-0-0-0-0-0-0--|
 PM  . . . . . . . .
 
Solo
 
(1:17-1:33)
 
E |----------------------------------------------------------------------------------|
B |----------------------------------------------------------------------------------|
G |----------------------------------------------------------------------------------|
D |----------------------------------------------------------------------------------| X2
A |----------------------------------------------------------------------------------|
E |--0-0--0---0---0--0-0---0~-----------0-0--0---0---0---0-0---0~---1-1-1-1-1-1-1-1--|
A |--1-1--1---1---1--1-1---1~-----------1-1--1---1---1---1-1---1~---0-0-0-0-0-0-0-0--|
 PM  . .  .   .   .  . .   .            . .  .   .   .   . .   .    . . . . . . . . 
 
Verse 1
 
(1:34-1:51)
 
E |-------------------------|
B |-------------------------|
G |-------------------------|
D |-------------------------|
A |----------------------6*-|
E |--0-3--6t--0-2--5t-------|
A |--0-3------0-2------0----|
 PM  . .      . .      .
 
E |-----------------------------------------------|
B |-----------------------------------------------|
G |-----------------------------------------------|
D |-----------------------------------------------|
A |--------------------------------------------6*-|
E |--0-3--6t--0-2--5t--0-1-0-3--6t--0-2--5t-------|
A |--0-3------0-2------0-1-0-3------0-2------0----|
 PM  . .      . .      . . . .      . .      .
 
E |-----------------------------------------------|
B |-----------------------------------------------|
G |-----------------------------------------------|
D |-----------------------------------------------|
A |-----------------------------------------------|
E |--0-3--6t--0-2--5t--0-1-0-3--6t--0-2--5t--0----|
A |--0-3------0-2------0-1-0-3------0-2------0----|
 PM  . .      . .      . . . .      . .      .
 
E |-------------------------------------------------------------------|
B |-------------------------------------------------------------------|
G |-------------------------------------------------------------------|
D |-------------------------------------------------------------------|
A |----------------------------------------------------------------6*-|
E |-----------6t-----------5t-------------------6t-----------5t-------|
A |--0-0-3-3------0-0-2-2------0-0-1-1-0-0-3-3------0-0-2-2------0----|
 
E |-------------------------------------------------------------------|
B |-------------------------------------------------------------------|
G |-------------------------------------------------------------------|
D |-------------------------------------------------------------------|
A |-------------------------------------------------------------------|
E |-----------6t-----------5t-------------------6t-----------5t--0-1--|
A |--0-0-3-3------0-0-2-2------0-0-1-1-0-0-3-3------0-0-2-2------0-1--|
 PM                                                              . .
 
Pre-Breakdown
 
(1:52-2:08)
 
E |-----------------------------------------------------------|
B |-----------------------------------------------------------|
G |-----------------------------------------------------------|
D |-----------------------------------------------------------| X2
A |-----------------------------------------------------------|
E |-----------------------------------------------------------|
A |--0----0-0--0-0--0-----------0----0-0--0-0--0------6--3-2--|
 
Breakdown 2
 
(2:09-2:25)
 
E |----------------------------------------------------------|
B |----------------------------------------------------------|
G |----------------------------------------------------------|
D |----------------------------------------------------------| X2
A |----------------------------------------------------------|
E |--0~---0-0--0-0--0~-----------0~---0-0--0-0--0~-----------|
A |--1~---1-1--1-1--1~---3-2-3b--1~---1-1--1-1--1~---6--3-2--|
 PM  .    . .  . .  .            .    . .  . .  .
 
Outro
 
(2:26-2:45)
 
E |------------------------------------------------------------|
B |------------------------------------------------------------|
G |------------------------------------------------------------|
D |------------------------------------------------------------|
A |------------------------------------------------------------|
E |-----0-0-0-0-0-0-0-0---------------0-0-0-0-0-0-0-0----------|
A |--0--1-1-1-1-1-1-1-1--0-0--0-0--0--1-1-1-1-1-1-1-1--3-2-3b--|
 PM     . . . . . . . .               . . . . . . . .
 
E |------------------------------------------------------------|
B |------------------------------------------------------------|
G |------------------------------------------------------------|
D |------------------------------------------------------------|
A |------------------------------------------------------------|
E |-----0-0-0-0-0-0-0-0---------------0-0-0-0-0-0-0-0----------|
A |--0--1-1-1-1-1-1-1-1--0-0--0-0--0--1-1-1-1-1-1-1-1--6--3-2--|
 PM     . . . . . . . .               . . . . . . . .
 
E |------------------------------------------------------------|
B |------------------------------------------------------------|
G |------------------------------------------------------------|
D |------------------------------------------------------------|
A |------------------------------------------------------------|
E |-----0-0-0-0-0-0-0-0---------------0-0-0-0-0-0-0-0----------|
A |--0--0-0-0-0-0-0-0-0--0-0--0-0--0--0-0-0-0-0-0-0-0--3-2-3b--|
 PM     . . . . . . . .               . . . . . . . .
 
E |--------------------------------------------------------------|
B |--------------------------------------------------------------|
G |--------------------------------------------------------------|
D |--------------------------------------------------------------|
A |--------------------------------------------------------------|
E |-----0-0-0-0-0-0-0-0---------------0-0-0-0-0-0-0-0------------|
A |--0--0-0-0-0-0-0-0-0--0-0--0-0--0--0-0-0-0-0-0-0-0--6--3-2-0--|
 PM     . . . . . . . .               . . . . . . . .
 
-----------------------------------------------------------------------------------------------
 
 
Lead Guitar
 
Intro:
 
(0:00-0:01)
 
E |-------------------|
B |-------------------|
G |-------------------|
D |-------------------|
A |--1----------------|
E |--1-4-1-0-1-3-1-0--|
A |----4-1-0-1-3-1-0--|
 PM    . . . . . . .
 
Verse 1
 
(0:02-0:10)
 
E |-----------------------------------------------|
B |-----------------------------------------------|
G |-----------------------------------------------|
D |-----------------------------------------------|
A |--------------------------------------------6*-|
E |--0-3--6t--0-2--5t--0-1-0-3--6t--0-2--5t-------|
A |--0-3------0-2------0-1-0-3------0-2------0----|
 PM  . .      . .      . . . .      . .      .
 
E |-----------------------------------------------|
B |-----------------------------------------------|
G |-----------------------------------------------|
D |-----------------------------------------------|
A |-----------------------------------------------|
E |--0-3--6t--0-2--5t--0-1-0-3--6t--0-2--5t--0----|
A |--0-3------0-2------0-1-0-3------0-2------0----|
 PM  . .      . .      . . . .      . .      .
 
(0:11-0:20)
 
E |-------------------------------------------------------------------|
B |-------------------------------------------------------------------|
G |-------------------------------------------------------------------|
D |-------------------------------------------------------------------|
A |----------------------------------------------------------------6*-|
E |-----------6t-----------5t-------------------6t-----------5t-------|
A |--0-0-3-3------0-0-2-2------0-0-1-1-0-0-3-3------0-0-2-2------0----|
 
E |---------------------------------------------------------------------------------------|
B |---------------------------------------------------------------------------------------|
G |---------------------------------------------------------------------------------------|
D |---------------------------------------------------------------------------------------|
A |---------------------------------------------------------------------------------------|
E |-----------6t-----------5t-------------------6t-----------5t--0-1-0-3--6t--0-2--5t--0--|
A |--0-0-3-3------0-0-2-2------0-0-1-1-0-0-3-3------0-0-2-2------0-1-0-3------0-2------0--|
 PM                                                              . . . .      . .
 
Verse 2:
 
(0:21-0:39)
 
E |-------------------------------------------------------------------|
B |-------------------------------------------------------------------|
G |-------------------------------------------------------------------|
D |-------------------------------------------------------------------|
A |------------------------1------------------------------------------|
E |-------2t--1t-------0-1-1-3--------2t--1t-------6t--5t--2t--1t-----|
A |--1t-----------4t---0-1---3---1t-----------4t----------------------|
 PM                    . .   .
 
E |------------------------------------------------------------------------------------------------|
B |------------------------------------------------------------------------------------------------|
G |------------------------------------------------------------------------------------------------|
D |------------------------------------------------------------------------------------------------|
A |------------------------1-----------------------------------------------------------------------|
E |-------2t--1t-------0-1-1-3--------2t--1t-------6t--5t--2t--1t--6t--5t--2t--1t--0-0-0-0-0-0-0-0-|
A |--1t-----------4t---0-1---3---1t-----------4t-----------------------------------0-0-0-0-0-0-0-0-|
 PM                    . .   .                                                     . . . . . . . . 
 
Bridge
 
(0:40-0:56)
 
E |----------------------------------------------------------|
B |----------------------------------------------------------|
G |----------------------------------------------------------|
D |----------------------------------------------------------| X2
A |----------------------------------------------------------|
E |--1~----------2~-----6-5-3----1~----------2~-----6--5--3--|
A |--1~----------2~-----6-5-3----1~----------2~-----6--5--3--|
 PM                     . .                         .  .  .
 
Breakdown 1
 
(0:58-1:14)
 
E |----------------------------------------------------------------------------------|
B |----------------------------------------------------------------------------------|
G |----------------------------------------------------------------------------------|
D |----------------------------------------------------------------------------------|
A |----------------------------------------------------------------------------------|
E |--0-0--0---0---0--0-0---0~-----------0-0--0---0---0---0-0---0~---1-1-1-1-1-1-1-1--|
A |--1-1--1---1---1--1-1---1~-----------1-1--1---1---1---1-1---1~---0-0-0-0-0-0-0-0--|
 PM  . .  .   .   .  . .   .            . .  .   .   .   . .   .    . . . . . . . . 
 
E |----------------------------------------------------------------------------|
B |----------------------------------------------------------------------------|
G |----------------------------------------------------------------------------|
D |----------------------------------------------------------------------------|
A |----------------------------------------------------------------------------|
E |--0-0--0---0---0--0-0---0~-----------0-0--0---0---0---0-0---0~--------------|
A |--1-1--1---1---1--1-1---1~-----------1-1--1---1---1---1-1---1~---0---0---0--|
 PM  . .  .   .   .  . .   .            . .  .   .   .   . .   .
 
Pre-Solo
 
(1:14-1:15)
 
E |-------------------|
B |-------------------|
G |-------------------|
D |-------------------|
A |-------------------|
E |--1-1-1-1-1-1-1-1--|
A |--0-0-0-0-0-0-0-0--|
 PM  . . . . . . . .
 
Solo
 
(1:16-1:35)
 
E |-----------------------------------------------------------------|
B |-----------------------------------------------------------------|
G |-----------------------------------------------------------------|
D |-----------------------------------------------------15~--14~----|
A |--11s13~---13~---16~---15~---12~---13~---16~---15~---------------|
E |-----------------------------------------------------------------|
A |-----------------------------------------------------------------|
 
E |-----------------------------------------------------------------|
B |-----------------------------------------------------------------|
G |-----------------------------------------------------------------|
D |--------------------------------------------15~--14~-------------|
A |--13~---16~---15~---12~---13~---16~---15~-------------13~--------|
E |-----------------------------------------------------------------|
A |-----------------------------------------------------------------|
 
Verse 1
 
(1:36-1:51)
 
E |-----------------------------------------------|
B |-----------------------------------------------|
G |-----------------------------------------------|
D |-----------------------------------------------|
A |--------------------------------------------6*-|
E |--0-3--6t--0-2--5t--0-1-0-3--6t--0-2--5t-------|
A |--0-3------0-2------0-1-0-3------0-2------0----|
 PM  . .      . .      . . . .      . .      .
 
E |-----------------------------------------------|
B |-----------------------------------------------|
G |-----------------------------------------------|
D |-----------------------------------------------|
A |-----------------------------------------------|
E |--0-3--6t--0-2--5t--0-1-0-3--6t--0-2--5t--0----|
A |--0-3------0-2------0-1-0-3------0-2------0----|
 PM  . .      . .      . . . .      . .      .
 
E |-------------------------------------------------------------------|
B |-------------------------------------------------------------------|
G |-------------------------------------------------------------------|
D |-------------------------------------------------------------------|
A |----------------------------------------------------------------6*-|
E |-----------6t-----------5t-------------------6t-----------5t-------|
A |--0-0-3-3------0-0-2-2------0-0-1-1-0-0-3-3------0-0-2-2------0----|
 
E |-------------------------------------------------------------------|
B |-------------------------------------------------------------------|
G |-------------------------------------------------------------------|
D |-------------------------------------------------------------------|
A |-------------------------------------------------------------------|
E |-----------6t-----------5t-------------------6t-----------5t--0-1--|
A |--0-0-3-3------0-0-2-2------0-0-1-1-0-0-3-3------0-0-2-2------0-1--|
 PM                                                              . .
 
Pre-Breakdown
 
(1:52-2:08)
 
E |-----------------------------------------------------------|
B |-----------------------------------------------------------|
G |-----------------------------------------------------------|
D |-----------------------------------------------------------| X2
A |-----------------------------------------------------------|
E |-----------------------------------------------------------|
A |--0------------------3-2-3b--0---------------------6--3-2--|
 
Breakdown 2
 
(2:09-2:25)
 
E |----------------------------------------------------------|
B |----------------------------------------------------------|
G |----------------------------------------------------------|
D |----------------------------------------------------------| X2
A |----------------------------------------------------------|
E |--0~---0-0--0-0--0~-----------0~---0-0--0-0--0~-----------|
A |--1~---1-1--1-1--1~---3-2-3b--1~---1-1--1-1--1~---6--3-2--|
 PM  .    . .  . .  .            .    . .  . .  .
 
Outro
 
(2:26-2:45)
 
E |-----------------------------------------------------------|
B |-----------------------------------------------------------|
G |-----------------------------------------------------------|
D |-----------------------------------------------------------|
A |-----------------------------------------------------------|
E |-----------------------------------------------------------|
A |--0-------------------0-0--0-0--0------------------3-2-3b--|
 
E |-----------------------------------------------------------|
B |-----------------------------------------------------------|
G |-----------------------------------------------------------|
D |-----------------------------------------------------------|
A |-----------------------------------------------------------|
E |-----------------------------------------------------------|
A |--0-------------------0-0--0-0--0------------------6--3-2--|
 
E |-----------------------------------------------------------|
B |-----------------------------------------------------------|
G |-----------------------------------------------------------|
D |-----------------------------------------------------------|
A |-----------------------------------------------------------|
E |-----0-0-0-0-0-0-0-0---------------0-0-0-0-0-0-0-0---------|
A |--0--0-0-0-0-0-0-0-0--0-0--0-0--0--0-0-0-0-0-0-0-0-3-2-3b--|
 PM     . . . . . . . .               . . . . . . . .
 
E |-------------------------------------------------------------|
B |-------------------------------------------------------------|
G |-------------------------------------------------------------|
D |-------------------------------------------------------------|
A |-------------------------------------------------------------|
E |-----0-0-0-0-0-0-0-0---------------0-0-0-0-0-0-0-0-----------|
A |--0--0-0-0-0-0-0-0-0--0-0--0-0--0--0-0-0-0-0-0-0-0-6--3-2-0--|
 PM     . . . . . . . .               . . . . . . . .
            
Submit corrections

↑ Back to top | Tablatures and chords for acoustic guitar and electric guitar, ukulele, drums are parodies/interpretations of the original songs. You may use it for private study, scholarship, research or language learning purposes only