Home » C » Chelsea Grin »

Chelsea Grin - The Human Condition Tabs

Artists:  A B C D E F G H I J K L M N O P Q R S T U V W X Y Z # 

The Human Condition Tabs

(ver. 1) Click to play this song!
Chelsea Grin
(Intro)
Intro to:

The Human Condition-Chelsea Grin



Update 1: Fixed some stray notes and added a part about tuning. Should sound more 
like the actual song.


Tuning: AEADGBE or EADGBE Chelsea Grin uses seven strings in drop A, but they 
never go below the D string on this arpeggio so you can play it on a standard tuned six string.

Into Pt. 1.(Slow intro)

E|8-5-----------5-8-5---------5----4-7----------4-7-4----------4-|
B|----5-------5-------5------5-----------------------------------|
G|------5---5-----------5---5----------4-7---7-4-----4-7---7-4---|
D|--------7---------------7----------------6-------------6-------|
A|---------------------------------------------------------------|
E|---------------------------------------------------------------|
A|---------------------------------------------------------------|


E|8-5-----------5-8-5---------5-----10-7------------10-7-10------------|
B|----5-------5-------5------5-----------------------------------------|
G|------5---5-----------5---5-----------10-7---10-7--------10-7--------|
D|--------7---------------7------------------9------------------9~~~~~~|
A|---------------------------------------------------------------------|
E|---------------------------------------------------------------------|
A|---------------------------------------------------------------------|
 |Harmony
E|8-5-----------5-8-5---------8-5----4-7-------------4--7--4-----------|
B|----5-------5-------5------5-----------------------------------------|
G|------5---5-----------5---5------------4--7---7--4--------4--7-------|
D|--------7---------------7-------------------6-----------------6-~~~~~|
A|---------------------------------------------------------------------|
E|---------------------------------------------------------------------|
A|---------------------------------------------------------------------|



Intro Pt. 2. (The Faster part) Repeat this entire section twice.

E|85-----5--85-5----85-----585-----5-7p4-------4---7p4-4----7p4-------4h7p4-------4---|
B|--5---5-5---5-5-----5---5---5---5---------------------------------------------------|
G|---5-5---5-----5-----5-5-----5-5------7p4-4h7-7p4---7-7p4----7p4-4h7-----7p4-4h7----|
D|----7-----------------7-------7----------6----------------------6-----------6-------|
A|------------------------------------------------------------------------------------|
E|------------------------------------------------------------------------------------|
A|------------------------------------------------------------------------------------|


E|85-----5--85-5----85-----585-----5-10p7---------7----10p7--7----7p4----------7h10p7---------7|
B|--5---5-5---5-5-----5---5---5---5------------------------------------------------------------|
G|---5-5---5-----5-----5-5-----5-5-------10p7-7h10-10p7----10-10p7----10p7-7h10------10p7-7h10-|
D|----7-----------------7-------7------------9----------------------------9--------------9-----|
A|---------------------------------------------------------------------------------------------|
E|---------------------------------------------------------------------------------------------|
A|---------------------------------------------------------------------------------------------|
            
Submit corrections

↑ Back to top | Tablatures and chords for acoustic guitar and electric guitar, ukulele, drums are parodies/interpretations of the original songs. You may use it for private study, scholarship, research or language learning purposes only