» » »

Cheech And Chong - Beaners Tabs

Artists:  A B C D E F G H I J K L M N O P Q R S T U V W X Y Z # 

Beaners Tabs

(ver. 3) Click to play this song!
Cheech And Chong
 Rating:
4/5 (4 votes)
                cheech and chong


beaners






e:--------------------|
B:--------------------|
G:--------------------|
D:----------6---------|
A:-8-8-10-8-8-8--10-8-|
E:-6-6-6--6---6--6--6-|

e:--------------------|
B:--------------------|
G:--------------------|
D:----------6---------|
A:-8-8-10-8-8-8--10-8-|
E:-6-6-6--6---6--6--6-|

beaners!
e:--------------------|
B:--------------------|
G:--------------------|
D:----------6---------|
A:-8-8-10-8-8-8--10-8-|
E:-6-6-6--6---6--6--6-|

e:--------------------|
B:--------------------|
G:--------------------|
D:----------6---------|
A:-8-8-10-8-8-8--10-8-|
E:-6-6-6--6---6--6--6-|

beaners!
e:--------------------|
B:--------------------|
G:--------------------|
D:----------6---------|
A:-8-8-10-8-8-8--10-8-|
E:-6-6-6--6---6--6--6-|

e:-----|
B:-----|
G:-----|
D:-----|
A:-8-8-|
E:-6-6-|
            
Submit corrections

↑ Back to top | Tablatures and chords for acoustic guitar and electric guitar, ukulele, drums are parodies/interpretations of the original songs. You may use it for private study, scholarship, research or language learning purposes only