» » »

Charlie Daniels - Devil Went Down To Georgia (mandolin) Tabs

Artists:  A B C D E F G H I J K L M N O P Q R S T U V W X Y Z # 

Devil Went Down To Georgia (mandolin) Tabs

(ver. 1) Click to play this song!
Charlie Daniels
 Rating:
4/5 (4 votes)

 Devil Went Down To Georgia (mandolin) lessons Tabs too difficult? Try these video lessons and learn fast
 
                INTRO
[--------0-1-1-3-5-5-7-5-3-1-0---------0-0-1-3-3-5-3-1-0-------------------------]
[--5-4-5-----------------------3-0-3-5-------------------0-----------------------]
[--------------------------------------------------------------------------------]
[--------------------------------------------------------------------------------]

[--------------------------------------------------------------------------------]
[--5-7-5-0--3-5-3----1-3-1----0-1-0----------------------------------------------]
[-----------------5--------3--------2--5-7-5-0--3-5-3-2-0------------------------]
[--------------------------------------------------------------------------------]

[------------------------0-1-3-5-8-10-slide-down---------------------------------]
[----------------0-2-4-5-----------8--slide-down------------(12)-----------------]
[--------0-2-3-5--------------------------------------------(12)-HARMONIC--------]
[--2-4-6-------------------------------------------------------------------------]

THE LITTLE RIFF IS THESE NOTES:
A C D  (GET CREATIVE)

BRIDGE
[--------------------------------------------------------------------------------]
[--2-3-4-0~~~~~~~~~~---------------------------0~~~~~~~~~~~----------------------]
[--------------------5~~~~~~~~~~3-5~~~~~~~~~~~--------------5~~~~~~~~~~~-7--5-3-2]
[--------------------------------------------------------------------------------]

OR I LIKE TO PLAY THIS:

        Dm    C   Gm   Dm   Dm   Gm   A7
[--------1----0----3----1----1----3---3-----x--x-x-x-----------------------------]
[--2-3-4-0----3----1----0----0----1---4-----x--x-x-x-----------------------------]
[--------0----2----0----0----0----0---2-----7--5-3-2-----------------------------]
[--------2----0----0----2----2----0---2-----x--x-x-x-----------------------------]
         

[--------0-1-1-3-5-5-7-5-3-1-0---------0-0-1-3-3-5-3-1-0----------------]
[--5-4-5-----------------------3-0-3-5-------------------0--------------]
[-----------------------------------------------------------------------]
[-----------------------------------------------------------------------]

[-----------------------------------------------------------------------]
[--5-7-5-0--3-5-3----1-3-1----0-1-0-------------------------------------]
[-----------------5--------3--------2--5-7-5-0--3-5-3-2-0---------------]
[-----------------------------------------------------------------------]

LITTLE RIFF
A C D

DEVIL SOLO INTRO
[-----------------------------------------------------------------------]
[-0-3-5-----------------------------------------------------------------]
[-------0-0-0-3-3-3-3-2-2-2-0-0-0-0--0-0-0-3-3-3-3-2-2-2-0-0-0-0--------]
[-------2-2-2-5-5-5-5-0-0-0-2-2-2-2--2-2-2-5-5-5-5-0-0-0-2-2-2-2--------]

BASS PART
[--------------------------------------------------------------------x2-]
[----------0-5-0-----------------------------------------------------x2-]
[--0-3-5-6-------6-5-3-5-6-5-3-5-3-----------------------------------x2-]
[--------------------------------------------------------------------x2-]

DEVIL SOLO
[-1//5////---3-5-6-5-3-1-3-5-3-5-6-5-3-1-3-5-3-1-0-0-0-0-1//5////-\\\\\-]
[-0//3////-0-0-0-0-0-0-0-0-0-0-0-0-0-0-0-0-0-0-0-0-0-0-0-0//3////-\\\\\-]
[-----------------------------------------------------------------------]
[-----------------------------------------------------------------------]

FIRE ON THE MOUNTAIN, RUN BOYS RUN,
[------------------------2P0-2-3-2-0------------------------------------]
[-0--0-0--0--0-2-2-0--0--0-----------5-0---0-2-0-5----------------------]
[----------------------------------------4------------------------------]
[-----------------------------------------------------------------------]

DEVIL'S IN THE HOUSE OF THE RISING SUN.
[-----------------------------0-1-3-0-3-0-5-3-0-------------------------]
[-----------------0-0---3-3H5-------------------5-3---------------------]
[-5-5-5-5--5--5-5-----5-------------------------------------------------]
[-----------------------------------------------------------------------]

CHICKEN IN THE BREAD PAN PECKIN' OUT DOUGH.
[-------------------------1-2---1-1-1-----------------------------------]
[-0-0-0-0--0--0-2-2--2--0-0---5-------5-2-0-3-2-0-----------------------]
[-------------------------------------------------5-4-------------------]
[-----------------------------------------------------------------------]

GRANNY DOES YOUR DOG BITE? NO, CHILD NO.
[----------------------------3-----5-----3-----5-----3-3----------------]
[----------------0-0---3-3-3---3-3---3-3---3-3---3-3--------------------]
[-5-5--5-5--5--5-----5--------------------------------------------------]
[-----------------------------------------------------------------------]

[-1-0-1-3-1-0---0-1-0-1-3-1-0-----------------0-1-3-0-3-5-3-0---0----x3-]
[-------------5---------------5-0-3-0-3-0-3-5-----------------5------x3-]
[--------------------------------------------------------------------x3-]
[--------------------------------------------------------------------x3-]

[-5-4-5-0-2-5-1-0-------------------------------------------------------]
[-----------------4-0-2-3-1-0-----------0-4-2-3-2-0-------0-4-2-3-2-0---]
[-----------------------------4-0-1-2-4-------------3-2-4-------------3-]
[-----------------------------------------------------------------------]

[-------------------0---------------------------------------------------]
[-----0-4-2-3-2-0---0---------------------------------------------------]
[-2-4-------------3-----2---2---0---------------------------------------]
[-----------------------2---5---2---------------------------------------]

CHORUS #2
FIRE ON THE MOUNTAIN, RUN BOYS RUN,
[------------------------2P0-2-3-2-0-------------5----------------------]
[-0--0-0--0--0-2-2-0--0--0-----------5-0---0-2-0------------------------]
[----------------------------------------4------------------------------]
[-----------------------------------------------------------------------]

DEVIL'S IN THE HOUSE OF THE RISING SUN.
[-----------------------------0-1-3-0-3-0-5-3-0-------------------------]
[-----------------0-0---3-3H5-------------------5-3---------------------]
[-5-5-5-5--5--5-5-----5-------------------------------------------------]
[-----------------------------------------------------------------------]

CHICKEN IN THE BREAD PAN PECKIN' OUT DOUGH.
[-------------------------1-2---0-1-0-----------------------------------]
[-0-0-0-0--0--0-2-2--2--0-0---5-------5-2-0-3-2-0-----------------------]
[-------------------------------------------------5-4-------------------]
[-----------------------------------------------------------------------]

GRANNY DOES YOUR DOG BITE? NO, CHILD NO.
[--------------------------------------------0-3-5-3-0------------------]
[----------------0-0-----------------0-2-3-5-----------5----------------]
[-5-5--5-5--5--5-----5---------0-2-5------------------------------------]
[----------------------5-5P4-5------------------------------------------]

[-1-0-1-3-1-0---0-1-0-1-3-1-0-----------------0-1-3-0-3-5-3-0---0----x3-]
[-------------5---------------5-0-3-0-3-0-3-5-----------------5------x3-]
[--------------------------------------------------------------------x3-]
[--------------------------------------------------------------------x3-]

[-1-0-1-3-1-0---0-1-0-1-3-1-0---------------------------0---------3-----]
[-------------5---------------5-0---3----------5------------------------]
[-----------------------------------------------------------------------]
[-----------------------------------------------------------------------]

[-5----3----1----0------------------------------------------------------]
[---------------------5-----3-----1-----0-----5---3---1---0-------------]
[-----------------------------------------------------------------------]
[-----------------------------------------------------------------------]

[---0----------------------------------------------1-1------------------]
[-5---5-0-3-5-3-0-1-3-1---0-1-0-----0--------------0-0------------------]
[-----------------------5-------3-5---5-0-3-5-3-2--0-0------------------]
[--------------------------------------------------2-2------------------]
            
Submit corrections


        Devil Went Down To Georgia (mandolin) lessons Hard to play? Try these video lessons and learn fast Devil Went Down To Georgia (mandolin) lessons
        
↑ Back to top | Tablatures and chords for acoustic guitar and electric guitar, ukulele, drums are parodies/interpretations of the original songs. You may use it for private study, scholarship, research or language learning purposes only