» » »

Charlie Daniels - The Devil Went Down To Georgia - Bass

Artists:  A B C D E F G H I J K L M N O P Q R S T U V W X Y Z # 

The Devil Went Down To Georgia - Bass

(ver. 1) Click to play this song!
Charlie Daniels
 Rating:
4/5 (4 votes)

 The Devil Went Down To Georgia - lessons Tabs too difficult? Try these video lessons and learn fast
 
                The Devil Went Down To Georgia (Bassline)
By Charlie Daniels

Gtr I Bass

 Intro
  Q=136
  Dm            C
 4/4
  Gtr I
  Q  Q  Q  Q    Q  Q  Q  Q
|-------------|-------------|
|-------------|-------------|
|-5-----5-----|-3-----3-----|
|----5-----5--|----3-----3--|


  Dm C  Bb A    G  A  DmA   C    D5
  Q  Q  Q  Q    Q  Q  E E S E.   W
|-------------|----------------|------|
|-------------|----------------|------|
|-5--3--1--0--|-------5-----3--|-5----|
|-------------|-3--5----5------|------|


         C   A    D5
  H    E E S E.   W          +W
|---------------|----------|--------||
|---------------|----------|--------||
|--------3---0--|-5--------|-(5)----||
|---------------|----------|--------||


 Verse
  Wx6
|--------|
|--------|
|--------|
|--------|


                    A     C
  W          H    E e +S  E.
|----------|-----------------|
|----------|-----------------|
|----------|--------0-(0)-3--|
|----------|-----------------|


  D5
  W          +W
|----------|--------|
|----------|--------|
|-5--------|-(5)----|
|----------|--------|


  Wx4
|--------|
|--------|
|--------|
|--------|


                    A     C
  W          H    E e +S  e.
|----------|-----------------|
|----------|-----------------|
|----------|--------0-(0)-3--|
|----------|-----------------|


  D5
  W          +W
|----------|--------|
|----------|--------|
|-5--------|-(5)----|
|----------|--------|


  +W           +H     e e e e
|------------|----------------|
|------------|----------------|
|-(5)--------|-(5)------------|
|------------|--------1-2-3-4-|


 Chorus
  Dm            C        Bb  Am
  Q  Q  Q  Q    Q  Q  Q  E S S
|-------------|----------------|
|-------------|----------------|
|-5-----5-----|-3-----3--1-1-0-|
|----5-----5--|----3-----------|


  Gm               Dm
  Q  Q  Q  E S S   Q  Q  Q  Q
|----------------|-------------|
|----------------|-------------|
|----------------|-5-----5-----|
|-3--3--3--3-2-0-|----5-----5--|


  Dm       F     Gm       G#°7
  Q  Q  Q  E E   Q  Q  Q  Q
|--------------|-------------|
|--------------|-------------|
|-5-----5------|-------------|
|----5-----1-1-|-3--3--3--4--|


  A
  W          Q  Q  Q  Q
|----------|-------------|
|----------|-------------|
|----------|-------------|
|-5--------|-5--3--1--0--|


  Dm            C
  Q  Q  Q  Q    Q  Q  Q  Q
|-------------|-------------|
|-------------|-------------|
|-5-----5-----|-3-----3-----|
|----5-----5--|----3-----3--|


  Dm C  Bb Am   G  A  DmA   C
  Q  Q  Q  Q    Q  Q  E E S E.
|-------------|----------------|
|-------------|----------------|
|-5--3--1--0--|-------5-----3--|
|-------------|-3--5----5------|


  D5
  W          +W
|----------|--------|
|----------|--------|
|-5--------|-(5)----|
|----------|--------|


  Wx4
|--------|
|--------|
|--------|
|--------|


                    A     C
  W          H    E E +S  E.
|----------|-----------------|
|----------|-----------------|
|----------|--------0-(0)-3--|
|----------|-----------------|


 Interlude
  D
  W          +W
|----------|--------|
|----------|--------|
|-5--------|-(5)----|
|----------|--------|


  +W           +W
|------------|--------|
|------------|--------|
|-(5)--------|-(5)----|
|------------|--------|


   Fiddle Solo
                     1.,2.,3.,4.         5.
    E E E E E E E E   E E E E E E E E     E E E E E E E E
||------------------|------------------||-----------------|
||o-----------------|-----------------o||-----------------|
||o-5---------5-----|-----------------o||-----------------|
||----1-3-4-5---5-4-|-3-1-3-4-5-1-3-1--||-3-1-3-4-5-0-1-2-|


  Gm                Gm Am BbC          D5
  E E E E E E E E   Q  Q  e e +S  e.   W
|-----------------|------------------|------|
|-----------2-3-4-|-5----------------|------|
|-----1-3-5-------|----0--1-3-(3)-3--|-5----|
|-3-5-------------|------------------|------|


           A     C    D5
  +H     E e +S  e.   W          +W
|-------------------|----------|--------|
|-------------------|----------|--------|
|-(5)------0-(0)-3--|-5--------|-(5)----|
|-------------------|----------|--------|


  +W           +W
|------------|--------|
|------------|--------|
|-(5)--------|-(5)----|
|------------|--------|


  Wx2
|--------|
|--------|
|--------|
|--------|


 Bridge
  $
  D
  W          E H    E E E
|----------|--------------|
|----------|--------------|
|-5--------|-5-5------5-4-|
|----------|--------------|


  C
  W          E H    E E E
|----------|--------------|
|----------|--------------|
|-3--------|-3-3------3-4-|
|----------|--------------|


  D
  W          E H    E E E
|----------|--------------|
|----------|--------------|
|-5--------|-5-5------5-4-|
|----------|--------------|


                     To Coda
  C
  W          E Q  E E E E E
|----------|-----------------|
|----------|--------5-3-2----|
|-3--------|-3-3----------5--|
|----------|-----------------|


                 1.,2.
    Dm            C
    Q  Q  Q  Q    Q  Q  Q  Q
||--------------|--------------||
||o-------------|-------------o||
||o-5-----5-----|-3-----3-----o||
||-----5-----5--|----3-----3---||


  3.
  C             A
  Q  Q  Q  Q    W
|-------------|------|
|-------------|------|
|-3-----3-----|------|
|----3-----3--|-5----|


  A          A            C
  W          H    E E +S  E.
|----------|-----------------||
|----------|-----------------||
|----------|--------------3--||
|-5--------|-5------5-(5)----||


                          Verse
  D
  W          +W            +W           +W
|----------|------------||------------|--------|
|----------|------------||------------|--------|
|-5--------|-(5)--------||-(5)--------|-(5)----|
|----------|------------||------------|--------|


D.S. al Coda
  Wx6
|---------|
|---------|
|---------|
|---------|


    &
    Dm            C
    Q  Q  Q  Q    Q  Q  Q  Q
||--------------|--------------||
||o-------------|-------------o||
||o-5-----5-----|-3-----3-----o||
||-----5-----5--|----3-----3---||


  Dm            C  D  E  G
  Q  Q  Q  Q    Q  Q  Q  Q
|-------------|-------------|
|-------------|----------5--|
|-5-----5-----|-3--5--7-----|
|----5-----5--|-------------|


  Dm C  Bb Am     Dm  C  Bb Am     Dm  C  Bb Am
  Q  Q  Q  Q    E E S E. Q  Q    E E S E. Q  Q
|-------------|----------------|----------------|
|-------------|----------------|----------------|
|-5--3--1--0--|---5---3--1--0--|---5---3--1--0--|
|-------------|----------------|----------------|


                            D5
  E E E E E E E E   E E E E E E Q
|---7---5---3---2-|----------------*|
|-----------------|---5---3-0-0-0--*|
|-5---3---1---0---|----------------*|
|-----------------|-3---1----------*|


Duration Legend
---------------
W - whole; H - half; Q - quarter; E - 8th; S - 16th; T - 32nd; X - 64th; a - acciaccatura
+ - note tied to previous; . - note dotted; .. - note double dotted
Uncapitalized letters represent notes that are staccato (1/2 duration)
Irregular groupings are notated above the duration line
Duration letters will always appear directly above the note/fret number it represents the
duration for.  Duration letters with no fret number below them represent rests.  Multi-
bar rests are notated in the form Wxn, where n is the number of bars to rest for.  Low
melody durations appear below the staff

Tablature Legend
----------------
 h   - hammer-on
 p   - pull-off
 b   - bend
 pb  - pre-bend
 r   - bend release (if no number after the r, then release immediately)
 /\  - slide into or out of (from/to "nowhere")
 s   - legato slide
 S   - shift slide
n>  - natural harmonic
[n]  - artificial harmonic
n(n) - tapped harmonic
 ~   - vibrato
 tr  - trill
 T   - tap
 TP  
            
Submit corrections


        The Devil Went Down To Georgia - lessons Hard to play? Try these video lessons and learn fast The Devil Went Down To Georgia - lessons
        
↑ Back to top | Tablatures and chords for acoustic guitar and electric guitar, ukulele, drums are parodies/interpretations of the original songs. You may use it for private study, scholarship, research or language learning purposes only