» » »

Cave In - Jupiter Tabs

Artists:  A B C D E F G H I J K L M N O P Q R S T U V W X Y Z # 

Jupiter Tabs

(ver. 2) Click to play this song!
Cave In
 Rating:
4.3/5 (15 votes)

 Jupiter lessons Tabs too difficult? Try these video lessons and learn fast
 
                [Intro]

eb|--------------|--------------|--------------|--------------|
Bb|--8--8--8--7--|--7--7--7--7--|--8--8--8--7--|--7--7--7--7--|
Gb|--7--7--7--7--|--7--7--7--7--|--7--7--7--7--|--7--7--7--7--|
Db|--5--5--5--5--|--5--5--5--5--|--5--5--5--5--|--5--5--5--5--|
Ab|--5--5--5--5--|--5--5--5--5--|--5--5--5--5--|--5--5--5--5--|
Db|--5--5--5--5--|--5--5--5--5--|--5--5--5--5--|--5--5--5--5--|  [x4]

eb|--------------|--------------|--------------|--------------|
Bb|--11-11-11-10-|--10-10-10-10-|--11-11-11-10-|--10-10-10-10-|
Gb|--10-10-10-10-|--10-10-10-10-|--10-10-10-10-|--10-10-10-10-|
Db|--8--8--8--8--|--8--8--8--8--|--8--8--8--8--|--8--8--8--8--|
Ab|--8--8--8--8--|--8--8--8--8--|--8--8--8--8--|--8--8--8--8--|
Db|--8--8--8--8--|--8--8--8--8--|--8--8--8--8--|--8--8--8--8--|


[Verse]
[Bass only for first two measures]

eb|-------------------------------|
Bb|------------4--6--7--6--4--6~--|
Gb|---4--5--7---------------------|
Db|-------------------------------|
Ab|-------------------------------|
Db|-------------------------------|
 ["Jupiter this city is so bright..."]

eb|-------------------------------|
Bb|------------4--6--7--6--4--6~--|
Gb|---4--5--7---------------------|
Db|-------------------------------|
Ab|-------------------------------|
Db|-------------------------------|
 ["Jupiter your beauty doesn't mind.."]

eb|-------------------------------|
Bb|------------4--6--7--6--4--6~--|
Gb|---4--5--7---------------------|
Db|-------------------------------|
Ab|-------------------------------|
Db|-------------------------------|
 ["Jupiter you're seemingly so right.."]

eb|--------------------------------------------|
Bb|------------4--6--7--6--4--6~----4----------|
Gb|---4--5--7--------------------------7b8br---|
Db|--------------------------------------------|
Ab|--------------------------------------------|
Db|--------------------------------------------|
 ["Jupiter you're seemingly so right.."]

eb|-----------------------------------------|
Bb|------------4--6--7--6--4--6~-6~-6~-6~---|
Gb|---4--5--7-------------------------------|
Db|-----------------------------------------|
Ab|-----------------------------------------|
Db|-----------------------------------------|
 ["Jupiter you're seemingly so right.."]

eb|-----------------------------------------|
Bb|------------4--6--7--6--4--6~----3~~~~---|
Gb|---4--5--7-------------------------------|
Db|-----------------------------------------|
Ab|-----------------------------------------|
Db|-----------------------------------------|
 ["Jupiter you're seemingly so right..for..me"]

[Pre-Chorus]

eb|--0----0--0--|--1~---------|--0----0--0--|
Bb|--1----1--1--|--1~---------|--1----1--1--|
Gb|--0----0--0--|--1~---------|--0----0--0--|
Db|--2----2--2--|--3~---------|--2----2--2--|
Ab|--3----3--3--|--3~---------|--3----3--3--|
Db|-------------|-------------|-------------|
 ["Your blood is sweet like wine..."]

eb|--------------------|--------------------|--------------------|--------------------|
Bb|--9---9-9--8---8-8--|--6---6-6--5---5-5--|--8---8-8-----------|--------------------|
Gb|--------------------|--------------------|--------------------|--------------------|
Db|--------------------|--------------------|-----------5---5-5--|--7---7-7--9---9-9--|
Ab|--------------------|--------------------|--------------------|--------------------|
Db|--------------------|--------------------|--------------------|--------------------|
 ["Over and over..."]

[Chorus]

eb|--0--0--0--0--|--1--1--1--1--|--0--1--0--0--|--1--1--1--1--|
Bb|--1--1--1--1--|--1--1--1--1--|--1--1--1--1--|--1--1--1--1--|
Gb|--0--0--0--0--|--1--1--1--1--|--0--0--0--0--|--1--1--1--1--|
Db|--2--2--2--2--|--3--3--3--3--|--2--2--2--2--|--3--3--3--3--|
Ab|--3--3--3--3--|--3--3--3--3--|--3--3--3--3--|--3--3--3--3--|
Db|--------------|--------------|--------------|--------------|
 ["Your blood is sweet like wine..."]                             [X2]

eb|--0--0--0--0--|--3--3--3--3--|--1--1--1--1--|--1--1--1--1--|
Bb|--1--1--1--1--|--3--3--3--3--|--1--1--1--1--|--1--1--1--1--|
Gb|--0--0--0--0--|--4--4--4--4--|--2--2--2--2--|--1--1--1--1--|
Db|--2--2--2--2--|--5--5--5--5--|--3--3--3--3--|--3--3--3--3--|
Ab|--3--3--3--3--|--5--5--5--5--|--3--3--3--3--|--3--3--3--3--|
Db|--------------|--------------|--------------|--------------|
 ["I'll keep a seat on the edge of your mind"]

[Post-Chorus]

eb|--0--0--0--0--|--3--3--3--3--|--1--1--1--1--|--1--1--1--1--|
Bb|--1--1--1--1--|--3--3--3--3--|--1--1--1--1--|--1--1--1--1--|
Gb|--0--0--0--0--|--4--4--4--4--|--2--2--2--2--|--1--1--1--1--|
Db|--2--2--2--2--|--5--5--5--5--|--3--3--3--3--|--3--3--3--3--|
Ab|--3--3--3--3--|--5--5--5--5--|--3--3--3--3--|--3--3--3--3--|
Db|--------------|--------------|--------------|--------------|
 ["Visit me in my dreams.."]

[Verse]

eb|-----------10--11--13--14--13--11--13~~--|
Bb|---12--13--------------------------------|
Gb|-----------------------------------------|
Db|-----------------------------------------|
Ab|-----------------------------------------|
Db|-----------------------------------------|
 ["Jupiter your seemingly so right..."]

eb|-----------10--11--13--14--13--11--13~~11--10b11br10--|
Bb|---12--13---------------------------------------------|
Gb|------------------------------------------------------|
Db|------------------------------------------------------|
Ab|------------------------------------------------------|
Db|------------------------------------------------------|
 ["Jupiter your seemingly so right..."]

eb|-----------10--11--13--14--13--11--13~~--|
Bb|---12--13--------------------------------|
Gb|-----------------------------------------|
Db|-----------------------------------------|
Ab|-----------------------------------------|
Db|-----------------------------------------|
 ["Jupiter your seemingly so right..."]

eb|-----------10--11--13--14--13--11--13//////17--|
Bb|---12--13--------------------------------------|
Gb|-----------------------------------------------| 
Db|-----------------------------------------------|
Ab|-----------------------------------------------|
Db|-----------------------------------------------|
 ["Jupiter your seemingly so right...for me"]

[Outro]

eb|--------------|--------------|--------------|--------------|
Bb|--8--8--8--7--|--7--7--7--7--|--8--8--8--7--|--7--7--7--7--|
Gb|--7--7--7--7--|--7--7--7--7--|--7--7--7--7--|--7--7--7--7--|
Db|--5--5--5--5--|--5--5--5--5--|--5--5--5--5--|--5--5--5--5--|
Ab|--5--5--5--5--|--5--5--5--5--|--5--5--5--5--|--5--5--5--5--|
Db|--------------|--------------|--------------|--------------|  

eb|--------------|--------------|--------------|--------------|
Bb|--11-11-11-10-|--10-10-10-10-|--11-11-11-10-|--10-10-10-10-|
Gb|--10-10-10-10-|--10-10-10-10-|--10-10-10-10-|--10-10-10-10-|
Db|--8--8--8--8--|--8--8--8--8--|--8--8--8--8--|--8--8--8--8--|
Ab|--8--8--8--8--|--8--8--8--8--|--8--8--8--8--|--8--8--8--8--|
Db|--8--8--8--8--|--8--8--8--8--|--8--8--8--8--|--8--8--8--8--|

eb|--------------|--------------|--------------|--------------|
Bb|--8--8--8--7--|--7--7--7--7--|--8--8--8--7--|--7--7--7--7--|
Gb|--7--7--7--7--|--7--7--7--7--|--7--7--7--7--|--7--7--7--7--|
Db|--5--5--5--5--|--5--5--5--5--|--5--5--5--5--|--5--5--5--5--|
Ab|--5--5--5--5--|--5--5--5--5--|--5--5--5--5--|--5--5--5--5--|
Db|--5--5--5--5--|--5--5--5--5--|--5--5--5--5--|--5--5--5--5--|  
 [I keep a seat on the edge"]                                    [X4]

eb|--------------|--------------|--------------|--------------|
Bb|--11-11-11-10-|--10-10-10-10-|--11-11-11-10-|--10-10-10-10-|
Gb|--10-10-10-10-|--10-10-10-10-|--10-10-10-10-|--10-10-10-10-|
Db|--8--8--8--8--|--8--8--8--8--|--8--8--8--8--|--8--8--8--8--|
Ab|--8--8--8--8--|--8--8--8--8--|--8--8--8--8--|--8--8--8--8--|
Db|--8--8--8--8--|--8--8--8--8--|--8--8--8--8--|--8--8--8--8--|
 [I keep a seat on the edge]


            
Submit corrections


        Jupiter lessons Hard to play? Try these video lessons and learn fast Jupiter lessons
        
↑ Back to top | Tablatures and chords for acoustic guitar and electric guitar, ukulele, drums are parodies/interpretations of the original songs. You may use it for private study, scholarship, research or language learning purposes only