» » »

Catch 22 - On & On & On Tabs

Artists:  A B C D E F G H I J K L M N O P Q R S T U V W X Y Z # 

On & On & On Tabs

(ver. 1) Click to play this song!
Catch 22
 Rating:
4/5 (4 votes)

 On & On & On lessons Tabs too difficult? Try these video lessons and learn fast
 
                Very Good Ska Band!

     D    A    Bm    F#    G  
e|---5----5----2-----2-----3---------|
B|---7----5----3-----2-----3---------|
G|---7----6----4-----3-----4---------|
D|---7----7----4-----4-----5---------|
A|---5----7----2-----4-----5---------|
E|--------5----------2-----3---------|

Verse and Chorus:  D-A-Bm-F#-G-A-G-A (all ska upstrokes)


Fingerpicking part:
 D          A          Bm	  F#	
------------5---------------------2---------
-7------7----------5---3------3----------2--
------7----------6----------4----------3----
----7----------7----------4----------4------
-5---------------------2--------------------
------------5---------------------2---------

 G          D	       G          A
-3---------------------3----------5---------
--------3---7------7----------3----------5--
------4----------7----------4----------6----
----5----------7----------5----------7------
------------5-------------------------------
-3---------------------3----------5---------
            
Submit corrections


        On & On & On lessons Hard to play? Try these video lessons and learn fast On & On & On lessons
        
↑ Back to top | Tablatures and chords for acoustic guitar and electric guitar, ukulele, drums are parodies/interpretations of the original songs. You may use it for private study, scholarship, research or language learning purposes only