Home » C » Carter Burwell »

Carter Burwell - Phascination Phase Tabs

Artists:  A B C D E F G H I J K L M N O P Q R S T U V W X Y Z # 

Phascination Phase Tabs

(ver. 1) Click to play this song!
Carter Burwell
---------------------------------------
-------------------------------------------
---------------------------
---------------------------------
--------------------------------------
---------------------------------
------------------------------------------------------------------------------------------
This is a very basic song (The timing might get to you). Careful with the B string 
its the 
most annoying part of the song. Its played on a Spanish guitar
------------------------------------------------------------------------------------------
------------------------------------------------------------------------------------------
This is the work of Colton Hilgen and if i find it anywhere else on the internet I 
will under my rights as a citizen have it removed. Thank You
--------------------------------------------------------------------------------


e|--------------------------------------------------------|
B|----------------------------------5--3---------0-3------|
G|----------------------1--1--2--2--2--2--1--1--1---1-----|
D|---2--2--2--2--2--2--2--2--2--2--2--2--2--2--2----------|
A|--0--0--0--0--2--2--2--2--0--0--0--0--2--2--2-----------|
E|--------------------------------------------------------|


e|---------------------------------------------------------|
B|-----------------------0-3-----------5--3---------0-3----|
G|----2--2--2--2--1--1--1---1----2--2--2--2--1--1--1---1---|
D|---2--2--2--2--2--2--2--------2--2--2--2--2--2--2--------|
A|--0--0--0--0--2--2--2--------0--0--0--0--2--2--2---------|
E|---------------------------------------------------------|

e|----------5--7-------------------------------------------|
B|-----------------------------------(5)(3)--------0-3------|
G|------------------1--1--1--1--2--2--2--2--1--1--1---1-----|
D|----3--3--3--3---2--2--2--2--2--2--2--2--2--2--2----------|
A|---3--3--3--3--2--2--2--2--0--0--0--0--2--2--2-----------|
E|--1--1--1--1---------------------------------------------|


e|--------------------------------------------------------|
B|--------5--3---------0-3-----------(5)(3)--------0-3----|
G|--2--2--2--2--1--1--1---1-----2--2--2--2--1--1--1---1---|
D|-2--2--2--2--2--2--2---------2--2--2--2--2--2--2--------|
A|0--0--0--0--2--2--2---------0--0--0--0--2--2--2---------|
E|--------------------------------------------------------|

e|----------------------------------5--7------------------|
B|--------5--3---------0-3--------------------------------|
G|--2--2--2--2--1--1--1---1----------------2--2--2--2-----|
D|-2--2--2--2--2--2--2--------3--3--3--3--2--2--2--2------|
A|0--0--0--0--2--2--2--------3--3--3--3--1--1--1--1-------|
E|--------------------------1--1--1--1--------------------|

e|-------------------------|
B|------------------1-3-----|
G|----2--2--2--2--1--------|
D|---2--2--2--2--2---------|
A|--0--0--0--3--2----------|
E|-------------------------|
            
Submit corrections

↑ Back to top | Tablatures and chords for acoustic guitar and electric guitar, ukulele, drums are parodies/interpretations of the original songs. You may use it for private study, scholarship, research or language learning purposes only