» » »

Cars - Just What I Needed Tabs

Artists:  A B C D E F G H I J K L M N O P Q R S T U V W X Y Z # 

Just What I Needed Tabs

(ver. 3) Click to play this song!
Cars
 Rating:
4.5/5 (32 votes)

 Just What I Needed lessons Tabs too difficult? Try these video lessons and learn fast
 
                


Standard Tune (Eadgbe)

Intro    [4times]                        [4times]
--------------------------4-----|--------------------------------4-------4-------------|
--------------------------5-----|--------------------------------5-------5-------------|
--------------------------4-----|--------------------------------4-------4-------------|
---2--2-2-2--2--2---------------|----2-2--2--2--2--2-----------------------------------|
--------------------------------|------------------------------------------------------|
--------------------------------|------------------------------------------------------|
p.m…………….              p.m………………….

Riff 1 [played through the whole song] palm muted
---2-2-2-2-2-2-2-2---------------------------------------------------------------------|*
--------------------------2-2-2-2-2-2-2-2-----4-4-4-4-4-4-4-4-------------------------|
Distortion kicks in [play once]
----4--4------5---4---5--4-------8--8-----9---8---9---8---------------------------------|
----5--5------5---5---5--5-------9--9-----9---9---9---9---------------------------------|
----4--4---------------------------8--8-------------------------------------------------|

--1---1---2---1--1--1---2--1-----2--2---3---2---2---2---3---2---------------------------|
--2---2---2---2--2--2---2--2-----3--3---3---3---3---3---3---3---------------------------|
--1---1-------1--1--1-------1-----2--2-------2----2---2-------2-------------------------|

That's about all I know…I'll add on more a.s.a.p.
            
Submit corrections


        Just What I Needed lessons Hard to play? Try these video lessons and learn fast Just What I Needed lessons
        
↑ Back to top | Tablatures and chords for acoustic guitar and electric guitar, ukulele, drums are parodies/interpretations of the original songs. You may use it for private study, scholarship, research or language learning purposes only