» » »

Cars - Just What I Needed Tabs

Artists:  A B C D E F G H I J K L M N O P Q R S T U V W X Y Z # 

Just What I Needed Tabs

(ver. 2) Click to play this song!
Cars
 Rating:
4/5 (18 votes)

 Just What I Needed lessons Tabs too difficult? Try these video lessons and learn fast
 
                i dont know if this is 100% right but its really easy and it sounds correct.


clean

e---------0----------0----------0----------00----------00----------00---------------
B---------0----------0----------0----------00----------00----------00---------------
G---------9----------9----------9----------99----------99----------99--99999999-----
D---------9----------9----------9----------99----------99----------99--99999999-----
A-777777--7--777777--7--777777--7--777777--77--777777--77--777777--77--77777777-----
E---------0----------0----------0----------00----------00----------00---------------
pm......     ......     ......     ......      ......      ......      ........

e---------------------------------------------------------------------:-------------
B---------------------------------------------------------------------:-------------
G-----------------------------------------------------------/9--------:-------------
D-9-------11-------6-------7-------9-------11-------6-------/9-(x8)---:-------------
A-9-(x8)--11-(x8)--6-(x8)--7-(x8)--9-(x8)--11-(x8)--6-(x8)--/7--------:-------------
E-7-------9--------4-------5-------7-------9--------4-----------------:-------------
pm.................................................................


e--------------------------------------------------:--------------------------------
B--------------------------------------------------:--------------------------------
G-9-x----------------------------------------6/9---:---------------------------------
D-9-x--9-9--/11-x--6-6--/7-x--9-9--/11-x--6--6/9---:--------------------------------
A-7-x--9-9--/11-x--6-6--/7-x--9-9--/11-x--6--4/7---:--------------------------------
E------7-7--/9--x--4-4--/5-x--7-7--/9--x--4--------:--------------------------------
            
Submit corrections


        Just What I Needed lessons Hard to play? Try these video lessons and learn fast Just What I Needed lessons
        
↑ Back to top | Tablatures and chords for acoustic guitar and electric guitar, ukulele, drums are parodies/interpretations of the original songs. You may use it for private study, scholarship, research or language learning purposes only