» » »

Carnifex - Lie To My Face Tabs

Artists:  A B C D E F G H I J K L M N O P Q R S T U V W X Y Z # 

Lie To My Face Tabs

(ver. 3) Click to play this song!
Carnifex
 Rating:
4.7/5 (12 votes)


 Lie To My Face lessons Tabs too difficult? Try these video lessons and learn fast
 
                Lie To My Face - Carnifex

Tuning: Drop A

^: squealies
/: slide up
t: tap


Riff 1: 2x and the second time I do the taps just 3 frest higher.
e|--------------------------------------------|
B|--------------------------------------------|
G|--------------------------------------------|
D|--------------------------------------------|
A|------2^------------------------------------|
E|--1-0----1-0-2^-----------------------------|
A|--1-0----1-0----1-2///-8t11-7t10-8t11-7t10--|


============================================================================


Riff 2 trem picked
e|----------------------------------|
B|----------------------------------|
G|----------------------------------|
D|----------------------------------|
A|--------------2-------------------|
E|----3-2---2-3---3---3-2-------2-3-|
A|--1-----3---------1-----3-2-1-----|


============================================================================

Riff 3
e|-------------------------|
B|-------------------------|
G|-------------------------|
D|-------------------------|
A|--------222-1------333-2-|
E|--222-1------------------|
A|--222-1-------2--1-------|
    --- -       -  -

============================================================================

Riff 4              Play this part 2x then:
|--------------------|----------------------|
|--------------------|----------------------|
|--------------------|----------------------|
|--------------------|----------------------|
|--------------------|----------------------|
|----------7h8p7-----|----8h10p8-7h8p7-5h7p5|
|--000-000-------000-|000-------------------|
   --- ---       ---  ---                       

e|------------------|-----------------|------------------|-----------------|
B|------------------|-----------------|------------------|-----------------|
G|------------------|-----------------|------------------|-----------------|
D|------------------|-----------------|------------------|-----------------|
A|------------------|-----------------|------------------|--------------5--|
E|--------7h8p7-----|----8-0-7-10-8-7-|--------5h7p5-----|----7-0-5-7---8--|
A|888-888-------888-|888--------------|555-555-------777-|777--------------|
  --- ---       ---  ---               --- ---       ---  ---


============================================================================

Riff 5
e|--------------------------------------------------------------------|
B|--------------------------------------------------------------------|
G|--------------------------------------------------------------------|
D|--------------------------------------------------------------------|
A|-----------------------------------------------------------7--------|
E|---------------------------------------------------8-0-7-8---10-8-7-|
A|--000-000-000-000-000-8-0-7-10-8-7-000-000-000-000------------------|
    --- --- --- --- ---              --- --- --- ---

End of Riff 5 harmony
e|-----------------------|
B|-----------------------|
G|-----------------------|
D|-----------------------|
A|-----------10----------|
E|11-0-10-11----13-11-10-|
A|-----------------------|


============================================================================


Riff 6 
e|----------------|----------------|----------------|-----------------|
B|----------------|----------------|----------------|-----------------|
G|----------------|----------------|----------------|-----------------|
D|----------------|----------------|----------------|-----------------|
A|----------------|----------------|----------------|-----------------|
E|----5-0-4-0-----|7-0-5-0-----8-7-|----5-0-4-0-----|7-0-5-0-----8-10-|
A|0-0---------0-0-|--------0-0-----|0-0---------0-0-|--------0-0------|
  - -         - -          - -      - -         - -          - -
 
e|----------------|----------------|----------------|-----------------|
B|----------------|----------------|----------------|-----------------|
G|----------------|----------------|----------------|-----------------|
D|----------------|----------------|----------------|-----------------|
A|----------------|----------------|----------------|-----------------|
E|----5-0-4-0-----|7-0-5-0-----8-7-|----5-0-4-0-----|8p7---8h10---8p7-|
A|0-0---------0-0-|--------0-0-----|0-0---------0-0-|----0------0-----|
  - -         - -          - -      - -         - -      -      -


Riff 6(Harmony)
e|---------------|------------------|----------------|------------------|
B|---------------|------------------|----------------|------------------|
G|---------------|------------------|----------------|------------------|
D|---------------|------------------|----------------|------------------|
A|---------------|------------------|----------------|------------------|
E|----8-0-7-0----|10-0-8-0-----11-10|----8-0-10-0----|10-0-8-0-----11-13|
A|0-0---------0-0|--------0-0-------|0-0----------0-0|---------0-0------|
  - -         - -          - -         - -          - -           - -
 
e|---------------|------------------|---------------|--------------------|
B|---------------|------------------|---------------|--------------------|
G|---------------|------------------|---------------|--------------------|
D|---------------|------------------|---------------|--------------------|
A|---------------|------------------|---------------|--------------------|
E|----8-0-7-0----|10-0-8-0-----11-10|----8-0-7-0----|11p10--11h13---11p10|
A|0-0---------0-0|---------0-0------|0-0---------0-0|------0------0------|
  - -         - -          - -       - -         - -       -      -

============================================================================


WHAT THE f**k!!!!!!!!!!


Riff 7(a) 4x
e|------------------|
B|------------------|
G|------------------|
D|------------------|
A|------------------|
E|--3-2-1-2-1-0-1-0-|
A|--4-3-2-3-2-1-2-1-|
    - - - - - - - -

Riff 7(b) 4x
e|------------------|
B|------------------|
G|------------------|
D|------------------|
A|------------------|
E|--3-2-1-2-1-0-1-0-|
A|--3-2-1-2-1-0-1-0-|
    - - - - - - - -
============================================================================


Riff 8 all tremmed 4x
e|---------------------------------------------------------|
B|---------------------------------------------------------|
G|---------------------------------------------------------|
D|---------------------------------------------------------|
A|--------------------8-----7--------------------8--7------|
E|--5-7-5-8-7-5----------------5-7-5-8-7-5------------8-7--|
A|--------------10-8-----7-----------------10-8------------|

harmony to riff 8
e|-----------------------------------------------------------------------|
B|-----------------------------------------------------------------------|
G|-----------------------------------------------------------------------|
D|-----------------------------------------------------------------------|
A|------------------------11-----10------------------------11--10--------|
E|--8-10-8-11-10-8-------------------8-10-8-11-10-8---------------11-10--|
A|-----------------12-11------10--------------------12-11----------------|


============================================================================

the switch off
e|------------------|
B|------------------|
G|------------------|
D|------------------|
A|------------------|
E|------------------|
A|--1-2-0-1-2-0-1-2-|
it's just that back and forth
each guitar does it twice

then the b-down thing             After the last open
all palm muted                      do this below
e|---------------------------------|-----------|
B|---------------------------------|-----------|
G|---------------------------------|-----------|
D|---------------------------------|-----------|
A|---------------------------------|--1--1--1--|
E|1-2-0-1-2-0-1-2-0-1-2-0-4-3-2-0--|--0--0--0--|
A|1-2-0-1-2-0-1-2-0-1-2-0-4-3-2-0--|--1--1--1--|

============================================================================

LIE   TO    MY    FACE!!!!!!!


B-down                       Part 2
e|---------------------------|-----------------------------|
B|---------------------------|-----------------------------|
G|---------------------------|-----------------------------|
D|---------------------------|-----------------------------|
A|---------------------------|-----------------------------|
E|0-0-0-0-0-0--000000000-0-0-|0-0-0----0000-0000-0000-0-0--|
A|1-1-1-1-1-1--111111111-1-1-|1-1-1----1111-1111-1111-1-1--|


============================================================================

Riff 9-all tremmed and the harmony on the 3rd and 4th
3 frest higher.
e|--------------------------------------|
B|--------------------------------------|
G|--------------------------------------|
D|--------------------------------------|
A|--------7-----------------------------|
E|----7-8---10-7-8-7---7-8-7----8-10-8--|
A|--0----------------8-------10---------|

============================================================================

Closinf Riff/chug
e|------------------------------------------------------------------------|
B|------------------------------------------------------------------------|
G|------------------------------------------------------------------------|
D|------------------------------------------------------------------------|
A|--------------------------------------------------------------0h5h8-----|
E|0-1-0-1-2-1-0-1-0-1-2-1-----0-1-0-1-2-1-0-1-0-1-2-1------0h4h7----------|
A|0-1-0-1-2-1-0-1-0-1-2-1-----0-1-0-1-2-1-0-1-0-1-2-1-0h5h8----------0h5h8|
Then just play the beginning
of this riff 2 more times.
Without the hammer on parts
and you're done.
            
Submit corrections



        Lie To My Face lessons Hard to play? Try these video lessons and learn fast Lie To My Face lessons
        
↑ Back to top | Tablatures and chords for acoustic guitar and electric guitar, ukulele, drums are parodies/interpretations of the original songs. You may use it for private study, scholarship, research or language learning purposes only