» » »

Carly Rae Jepsen - Call Me Maybe Bass

Artists:  A B C D E F G H I J K L M N O P Q R S T U V W X Y Z # 

Call Me Maybe Bass

(ver. 2) Click to play this song!
Carly Rae Jepsen
 Rating:
4/5 (4 votes)


 Call Me Maybe lessons Tabs too difficult? Try these video lessons and learn fast
 
                
-----------------------------------------|
-----------------------------------------|
Probably best not played with a pick.
Fell free to make corrections below;
bit of a rushed tab.
-----------------------------------------|
-----------------------------------------|


Verse:
G|------------------------------------------------------------------|
D|*----------------------------------------------------------------*|
A|*3-3-3-3-3-3-3-10-10-10-10-10-10-10-3-3-3-3-3-3-3-5-5-5-5-5-5-5-5*|
E|------------------------------------------------------------------|

Chorus:
G|-----------------------------------------------------------------|
D|*--------------5-------------------3--------------5-------------*|
A|*3----------------5-5-----------------3-3------------5-5--------*|
E|-----------------------------------------------------------------|

Break

Verse

Chorus x2

Bridge
G|-----------------------------------------------------------------|
D|*--------------5-------------------3--------------5-------------*|
A|*3----------------5-5-----------------3-3------------5-5--------*|
E|-----------------------------------------------------------------|

Chorus until end

-----------------------------------------|
-----------------------------------------|
| /  slide up
| \  slide down
| h  hammer-on
| b  bend note
| p  pull-off
| ~  let ring
| +  harmonic
| x  mute note
| s  slap note
            
Submit corrections



        Call Me Maybe lessons Hard to play? Try these video lessons and learn fast Call Me Maybe lessons
        
↑ Back to top | Tablatures and chords for acoustic guitar and electric guitar, ukulele, drums are parodies/interpretations of the original songs. You may use it for private study, scholarship, research or language learning purposes only