Home » C » Carly Rae Jepsen »

Carly Rae Jepsen - Call Me Maybe Bass

Artists:  A B C D E F G H I J K L M N O P Q R S T U V W X Y Z # 

Call Me Maybe Bass

(ver. 1) Click to play this song!
Carly Rae Jepsen

Verse:
G|------------------------------------------------------------------|
D|-----------------5-5-5-5-5-5-5-5----------------------------------|
A|-3-3-3-3-3-3-3-3-----------------7-7-7-7-7-7-7-7-5-5-5-5-5-5-5-5--|
E|------------------------------------------------------------------|

Chorus:
G|-----------------------------------------------------------------|
D|---------------5----------------------------------5--------------|
A|-3----------------5-5--------------7--3-3------------5-5---------|
E|-----------------------------------------------------------------|

Break

Verse

Chorus x2

Bridge
G|-----------------------------------------------------------------|
D|---------------5----------------------------------5--------------|
A|-3----------------5-5--------------7--3-3------------5-5---------|
E|-----------------------------------------------------------------|

Chorus until end
            
Submit corrections

↑ Back to top | Tablatures and chords for acoustic guitar and electric guitar, ukulele, drums are parodies/interpretations of the original songs. You may use it for private study, scholarship, research or language learning purposes only