Home » C » Carissa'S Wierd »

Carissa'S Wierd - One Night Stand Tabs

Artists:  A B C D E F G H I J K L M N O P Q R S T U V W X Y Z # 

One Night Stand Tabs

(ver. 2) Click to play this song!
Carissa'S Wierd
Intro and verse:

e|---------------------------------------------------------------------------|
B|-------1--------1-3-----0-1------------------------------------------------|
G|---0h2--2---0h2-------0-------2-0-2----------------------------------------|
D|----------------------0-------3--------------------------------------------|
A|-3--------0-----------2----------------------------------------------------|
E|--------------------0-------1----------------------------------------------|
   C        Am        Em7     F
Break:
e|-------------------------------------------------------------------------------|
B|------1-------1----------1--------0------------1--------1-------0--------0-----|
G|----0---0---2---2----------2--------0--------0---0----2---2-------0--------0---|
D|-----------------------3--------0-----------------------------0--------0-------|
A|-3--------0--------------------------------3--------0--------------------------|
E|--------------------1---------3------------------------------3--------3--------|
   C        Am        F         G            C        Am       G        G

Last part: C Am F G            
Submit corrections

↑ Back to top | Tablatures and chords for acoustic guitar and electric guitar, ukulele, drums are parodies/interpretations of the original songs. You may use it for private study, scholarship, research or language learning purposes only