Home » C » Capitao Fausto »

Capitao Fausto - Febre Tabs

Artists:  A B C D E F G H I J K L M N O P Q R S T U V W X Y Z # 

Febre Tabs

(ver. 1) Click to play this song!
Capitao Fausto
[Intro]

e|-----------------|--------------------------------------|
B|-----------------|--------------------------------------|
G|-10-10-10--------|-10-10-10----------10-10-10-10-10-10--|
D|-10-10-10--------|-10-10-1-----------10-10-10-10-10-10--|
A|-8--8--8---------|-8--8--8-----------8--8--8--8--8--8---|
E|-----------------|--------------------------------------|

e|-----------------------------------|----------------------------------|
B|-----------------------------------|----------------------------------|
G|-----------------------------------|----------------------------------|
D|-----------------------------------|----------------------------------|
A|-7---7-7-9-10---7---7---7-9-10-----|---------9-10-------------9-10-9--|
E|-------------------------------10--|-9---9-9--------9---9---9---------|

e|-----------------------------------|-----------------------------------|
B|-----------------------------------|-----------------------------------|
G|-------------------------------7---|-----------------------------------|
D|----------------9------------------|----------9-10-------------9-10-9--|
A|-7---7-7-9-10-------7---7-9-10-----|-9---9-9--------9---9---9----------|
E|-----------------------------------|-----------------------------------|


[Verse 1]

e|-7-----|-5-----|-7-----|-5-----|
B|-8-----|-5-----|-8-----|-5-----|
G|-9-----|-6-----|-9-----|-6-----|
D|-9-----|-7-----|-9-----|-7-----|
A|-7-----|-7-----|-7-----|-7-----|
E|-------|-5-----|-------|-5-----|

e|-7-7---7-7---7-7---7-7-|-5-5---5-5---5-5---5-5--|
B|-8-8---8-8---8-8---8-8-|-5-5---5-5---5-5---5-5--|
G|-9-9---9-9---9-9---9-9-|-6-6---6-6---6-6---6-6--|
D|-9-9---9-9---9-9---9-9-|-7-7---7-7---7-7---7-7--|
A|-7-7---7-7---7-7---7-7-|-7-7---7-7---7-7---7-7--| (x2)
E|-----------------------|-5-5---5-5---5-5---5-5--|

[Pre-chorus]

e|-------------------------|
B|-------------------------|
G|--7h9-7---7--------------|
D|--------9---9-7-7---7-9--|
A|------------------9------| (x4)
E|-------------------------|

[Chorus]

e|-7-7---5-5---5-5---5-5-|
B|-8-8---5-5---7-7---7-7-|
G|-9-9---6-6---7-7---7-7-|
D|-9-9---7-7---7-7---7-7-|
A|-7-7---7-7---5-5---5-5-| (x4)
E|-------5-5-------------|

[Post-chorus]

e|-7---7---7---7------|---------------------------|
B|-8---8---8---10b12--|---------------------------|
G|-9---9---9----------|---------------------------|
D|-9---9---9----------|-----------------9-7-------|
A|-7---7---7----------|-7-7-7-7-7-7-7-7-----10-9--|
E|--------------------|---------------------------|


[Verse 2]

e|--------7--------10p7----------|--7-----------|
B|----------8--------------------|----8---------|
G|--9-------------------9p7\6----|--------------|
D|-------------------------------|--------------|
A|-------------------------------|--------------| (x2)
E|-------------------------------|--------------|

e|-7-7---7-7---7-7---7-7---5-5---5-5---5-5---5-5--|
B|-8-8---8-8---8-8---8-8---5-5---5-5---5-5---5-5--|
G|-9-9---9-9---9-9---9-9---6-6---6-6---6-6---6-6--|
D|-9-9---9-9---9-9---9-9---7-7---7-7---7-7---7-7--|
A|-7-7---7-7---7-7---7-7---7-7---7-7---7-7---7-7--| (x2)
E|-------------------------5-5---5-5---5-5---5-5--|

e|-7-----|-5-----|-7-----|-5-----|
B|-8-----|-5-----|-8-----|-5-----|
G|-9-----|-6-----|-9-----|-6-----|
D|-9-----|-7-----|-9-----|-7-----|
A|-7-----|-7-----|-7-----|-7-----|
E|-------|-5-----|-------|-5-----|

e|-7-7---7-7---7-7---7-7-|-5-5---5-5---5-5---5-5--|
B|-8-8---8-8---8-8---8-8-|-5-5---5-5---5-5---5-5--|
G|-9-9---9-9---9-9---9-9-|-6-6---6-6---6-6---6-6--|
D|-9-9---9-9---9-9---9-9-|-7-7---7-7---7-7---7-7--|
A|-7-7---7-7---7-7---7-7-|-7-7---7-7---7-7---7-7--| (x2)
E|-----------------------|-5-5---5-5---5-5---5-5--|

[Pre-chorus]

e|-------------------------|
B|-------------------------|
G|--7h9-7---7--------------|
D|--------9---9-7-7---7-9--|
A|------------------9------| (x4)
E|-------------------------|

[Chorus]

e|-7-7---5-5---5-5---5-5-|
B|-8-8---5-5---7-7---7-7-|
G|-9-9---6-6---7-7---7-7-|
D|-9-9---7-7---7-7---7-7-|
A|-7-7---7-7---5-5---5-5-| (x4)
E|-------5-5-------------|

[Outro]

e|--------------------------------------|------------------------------------|
B|--------------------------------------|------------------------------------|
G|--------6--------6-------6---9----11--|-------------------6-----8---9h11---|
D|----------7----7-------7---9---11-----|---7-------7---------7/9---9--------|
A|--9---9------------9------------------|-6---9---9---6----------------------| (x4)
E|--------------------------------------|------------------------------------|

e|-------------------|-------------------------------|-------------------------------------------|
B|-10---10---10---10-|-------------------------------|-------------------12-14-14-15-16-16-18-19-|
G|-11---11---11---11-|-------------------------------|-10-11-11-13-14-14-------------------------|
D|-11---11---11---11-|--------------9-11-11-12-13-13-|-------------------------------------------|
A|-9----9----9----9--|-9-9-10-11-11------------------|-------------------------------------------|
E|-------------------|-------------------------------|-------------------------------------------|

e|-1------------|-2------------|
B|-1------------|-2------------|
G|-2------------|-2------------|
D|-3------------|-4------------|
A|-3------------|-4------------|
E|-1------------|-2------------|

            
Submit corrections

↑ Back to top | Tablatures and chords for acoustic guitar and electric guitar, ukulele, drums are parodies/interpretations of the original songs. You may use it for private study, scholarship, research or language learning purposes only