» » »

Cancer - Hung Drawn And Quartered Tabs

Artists:  A B C D E F G H I J K L M N O P Q R S T U V W X Y Z # 

Hung Drawn And Quartered Tabs

(ver. 3) Click to play this song!
Cancer
 Rating:
4/5 (4 votes)

 Hung Drawn And Quartered lessons Tabs too difficult? Try these video lessons and learn fast
 
                Riff 1/Intro

D|-----------------------|
A|-----------------------|
F|-----------------------|
C|-----------------------|
G|-----------------------|
D|00000000000000000000...|

D|-----------------------|
A|-----------------------|
F|-----------------------|
C|-----------------------|
G|77777777777777777777...|
D|-----------------------|

Riff 2

D|--------------------------------|
A|--------------------------------|
F|--------------------------------|
C|--------------------------------|
G|----------------22222222--------|
D|3333333322222222--------11111111|

Riff 3

D|----------------|
A|----------------|
F|----------------|
C|----------------|
G|------------7-8-|
D|0000000000005-6-|

Riff 4 
                    2nd   3rd  4th
D|----------------|-----|----|-----|
A|----------------|-----|----|-----|
F|----------------|-----|----|-----|
C|----------------|-----|----|-----|
G|------------7-8-|-5-6-|7-8-|5-6-3|
D|0000000000005-6-|-3-4-|5-6-|3-4-1|

Riff 5

D|-------------------------|
A|-------------------------|
F|-------------------------|
C|-------------------------|
G|2----3----5---6-2--------|
D|0-00-1-00-3-0-4-0-0000000|
                  .........
         
D|---------------------------|
A|---------------------------|
F|---------------------------|
C|--------------3------------|
G|2----3----5---1-4----------|
D|0-00-1-00-3-0---2-222222222|
                  ...........
Riff 6 Chorus

D|-------------------------|-------------------------|
A|-------------------------|-------------------------|
F|-------------------------|-------------------------|
C|-------------------------|-------------------------|
G|-3-4-3-2-----3-4-6-7-4-5-|-3-4-3-2-----3-4-4-5-6-7-|
D|-1-2-----3-2-1-2-4-5-2-3-|-1-2-----3-2-1-2-2-3-4-5-|
                   . . . .                   . . . .            
Submit corrections


        Hung Drawn And Quartered lessons Hard to play? Try these video lessons and learn fast Hung Drawn And Quartered lessons
        
↑ Back to top | Tablatures and chords for acoustic guitar and electric guitar, ukulele, drums are parodies/interpretations of the original songs. You may use it for private study, scholarship, research or language learning purposes only