Home » C » Camera Obscura »

Camera Obscura - This Is Love Feels Alright Tabs

Artists:  A B C D E F G H I J K L M N O P Q R S T U V W X Y Z # 

This Is Love Feels Alright Tabs

(ver. 1) Click to play this song!
Camera Obscura
 Rating:
2.9/5 (29 votes)
                Chords used: D, Em, E, F#m, A

Intro

E|--------0--2h5--2h0--2h0-----------------------------|
B|-----3--------------------3h5--3p0--3--3--3--3h5--0--|
G|--2--------------------------------------------------|    x3
D|-----------------------------------------------------|    
A|-----------------------------------------------------|
E|-----------------------------------------------------|


E|--------0--2h5--2p0------------------------|
B|-----3---------------3--7\5--3p0--3--5--3--|
G|--2----------------------------------------|  
D|-------------------------------------------|
A|-------------------------------------------|
E|-------------------------------------------|

D
When I found your girlfriend crying
Em
I could have slapped you in the face
D
What lesson is she learning 
Em
With you acting this way?
D
You are a good boy
Em
She's a killer tease
D
You are both so deserving
Em
You are both keen to please

D, Em, D, Em

D                     Em
We're going to listen to Kokomo
D
Desert island dreaming
Em
Go forth or be lured
D
You're a good, good, good, good boy
Em
She's a killer tease
D
You are both discerning
Em
You are both keen to please

F#m             Em
So turn out the light
F#m                 Em
Just give in to the night
F#m                   Em
This is love (feels alright)
A
You're a star on this fine night

Interlude
E|--------0--2h5--2h0--2h0-----------------------------|
B|-----3--------------------3h5--3p0--3--3--3--3h5-----|
G|--2--------------------------------------------------|    x3
D|-----------------------------------------------------|    
A|-----------------------------------------------------|
E|-----------------------------------------------------|


E|--------0--2h5--2p0------------------------|
B|-----3---------------3--7\5--3p0--3--5--3--|
G|--2----------------------------------------|  
D|-------------------------------------------|
A|-------------------------------------------|
E|-------------------------------------------|

F#m                    Em
We could turn down the light
F#m                Em
To give in to the night
F#m                  Em
This is love (it's alright)
A
You're a star on this fine night

Interlude
On this fine night
Interlude
On this fine night
Interlude
On this fine night            
Submit corrections

↑ Back to top | Tablatures and chords for acoustic guitar and electric guitar, ukulele, drums are parodies/interpretations of the original songs. You may use it for private study, scholarship, research or language learning purposes only