Home » C » Camera Obscura »

Camera Obscura - Double Feature Tabs

Artists:  A B C D E F G H I J K L M N O P Q R S T U V W X Y Z # 

Double Feature Tabs

(ver. 1) Click to play this song!
Camera Obscura
 Rating:
3.9/5 (25 votes)
                [0:17]

e|------------------------------------------9-9-9s7----7-7s5----5-5p0---2p0--|
B|----5v------5s7s10--------10-----------------------------------------------|
G|------------------------------4---4-4s6------------------------------------|
D|---------------------------------------------------------------------------|
A|---------------------------------------------------------------------------|
E|---------------------------------------------------------------------------|

e|---9-9-9s7----7-7s5---5-5-0-5---5s7s9-9------------------------------------|
B|-------------------------------------- ------5-5s3--3-3s2--2p0-2p0---------|
G|---------------------------------------------------------------------------|
D|---------------------------------------------------------------------------|
A|---------------------------------------------------------------------------|
E|---------------------------------------------------------------------------|

e|---------------------------------------------------------------------------|
B|-------0---------0---------------------------------------------------------|
G|----2-----2---2-----2-------6---4---6---4-----6---4---6---4----------------|
D|---------------------------------------------------------------------------|
A|---------------------------------------------------------------------------|
E|---------------------------------------------------------------------------|            
Submit corrections

↑ Back to top | Tablatures and chords for acoustic guitar and electric guitar, ukulele, drums are parodies/interpretations of the original songs. You may use it for private study, scholarship, research or language learning purposes only