» » »

Camel - Lost And Found Tabs

Artists:  A B C D E F G H I J K L M N O P Q R S T U V W X Y Z # 

Lost And Found Tabs

(ver. 2) Click to play this song!
Camel
 Rating:
4/5 (4 votes)

 Lost And Found lessons Tabs too difficult? Try these video lessons and learn fast
 
                00:05
Not Sure if this is a keyboard, or a guitar going backwards, but i,ve written it out to play normal.

Volume Pedal/guitar knob = *                    s
e|-*---------------p-h-p--s--s-----h--p--s----12\14-------------------------------------------|
B|-9-~~~~~~~~~~~~~~-7-9-7-\12\14----16-14\12--------------------------------------------------|
G|-----------------------------------------------------h--p--s--h-------------h--p------------|
D|---------------------------------------------------14-16-14\13-14---s-----13-14-13---s---13-|
A|------------------------------------------------------------------14\16------------14\16----|
E|--------------------------------------------------------------------------------------------|


e|------------------------|
B|------------------------|
G|---h--p-----------------|
D|-13-14-13------s----s---|
A|----------16-14\16--\14-|
E|------------------------|




00:55            s     s
e|--*----------12\14~~~\16------------------------------------|
B|-12~~~~~~~~--------------12---------------------------------|
G|--------------------------------s----s----------------------|
D|------------------------------13\14--\16----s---------------|
A|-----------------------------------------14-\16~~~~~~~~~~~~-|
E|------------------------------------------------------------|



--------------------------------------
--------------------------------------
01:54
RIFF 1
*******
e|-------------------|------------------------|---------------------------|\
B|-------------------|---------------h--p-----|---------------------------| \
G|-9----9------p-----|-9----9----11-9-11-9----|-9----9------p-------------|  \
D|---11---11-13-9----|---11---11-----------13-|---11---11-13-9-------9-11-|  /X2
A|----------------11-|------------------------|----------------11-11------| /
E|-------------------|------------------------|---------------------------|/

02:04
e|----------|---p-----|--------------------------|-------------|----------|------------------|
B|--------9-|-10-9----|------p---b---------------|--s-----p----|-----p----|------------------|
G|-8-9-11---|------11-|-9--11-9-8------8---------|-8\9--11-9-8-|-6--8-6---|-----6-9-6-~~~~~~-|
D|----------|---------|------------11----11-9-11-|-------------|--------9-|-7-9--------------|
A|----------|---------|--------------------------|-------------|----------|------------------|
E|----------|---------|--------------------------|-------------|----------|------------------|


02:20
RIFF 1
*******
e|-------------------|------------------------|---------------------------|\
B|-------------------|---------------h--p-----|---------------------------| \
G|-9----9------p-----|-9----9----11-9-11-9----|-9----9------p-------------|  \
D|---11---11-13-9----|---11---11-----------13-|---11---11-13-9-------9-11-|  /X2
A|----------------11-|------------------------|----------------11-11------| /
E|-------------------|------------------------|---------------------------|/

02:30
e|----------|---p-----|--------------------------|-------------|----------|------------------|
B|--------9-|-10-9----|------p---b---------------|--s-----p----|-----p----|------------------|
G|-8-9-11---|------11-|-9--11-9-8------8---------|-8\9--11-9-8-|-6--8-6---|----------6-~~~~~-|
D|----------|---------|------------11----11-9-11-|-------------|--------9-|-7--6-4-----------|
A|----------|---------|--------------------------|-------------|----------|--------7---------|
E|----------|---------|--------------------------|-------------|----------|------------------|


--------------------------------------
--------------------------------------
02:45
SYNTH
******

--------------------------------------
--------------------------------------
03:23
SOLO 2
*******       s                                             s
e|-9-11-12--11\12~~~-------|-----b-9~~~-9------|-9-11-12--11\12~~~-------|-----b-9~~~-9------|
B|-------------------12~~~-|-10-12--------9~~~-|-------------------12~~~-|-10-12--------9~~~-|
G|-------------------------|-------------------|-------------------------|-------------------|
D|-------------------------|-------------------|-------------------------|-------------------|
A|-------------------------|-------------------|-------------------------|-------------------|
E|-------------------------|-------------------|-------------------------|-------------------|
                                               |
                                               |GUITAR 2
                                              e|------------s------------|-------------------|
                                              B|14-16-17--16\17~~~-------|-------14~~~14-----|
                                              G|-------------------16~~~-|-14-16---------13~~|
                                              D|-------------------------|-------------------|
                                              A|-------------------------|-------------------|
                                              E|-------------------------|-------------------|


--------------------------------------
--------------------------------------
SMALL SOLOS
************
03:33                                                        03:46                03:54
e|----------------------|--b---------|----b------|----------|----------|---------|---p-h---9-|
B|-12------12----12-----|-12-12-10-9-|-9-10-10-9-|--brp-----|--brp-----|-12--br--|-12-9-12---|
G|----13------------13--|------------|-----------|-11--9----|-11--9~~~-|----11-9-|-----------|
D|----------------------|------------|-----------|-------11-|----------|---------|-----------|
A|----------------------|------------|-----------|----------|----------|---------|-----------|
E|----------------------|------------|-----------|----------|----------|---------|-----------|

03:57                           04:02
e|-----------------------------|-------------|-------------|------------|--------|
B|---------9---p---------------|-------------|-------------|------------|--------|
G|----9-11---11-9--------------|-------------|-8--6-6------|-9--8-8-6-6-|-6--8-9-|
D|-11-------------11---s-------|-11--9-9-7-7-|---------9-9-|------------|--------|
A|-------------------11\9-7-11-|-------------|-------------|------------|--------|
E|-----------------------------|-------------|-------------|------------|--------|

04:14                                                 s
e|-9~~~~~~~~-9-7---------|-9~~~~~~~~-9-7---------|-9-7\9~~~~~~--br------|------------|
B|---------------9~~~~~~-|---------------9~~~~~~-|-------------12-9---9-|--brp-------|
G|-----------------------|-----------------------|----------------------|-11--9----s-|
D|-----------------------|-----------------------|----------------------|-------11-\-|
A|-----------------------|-----------------------|----------------------|------------|
E|-----------------------|-----------------------|----------------------|------------|


--------------------------------------
--------------------------------------
04:38
Volume Pedal/guitar knob = * 
e|-*---------------------------s--s----------------s--s-------h--p--s-s--------p--s-----h--p--|
B|-9~~~~~~~~~~~~~~~~~~~~~~~~~~~\12/9~~~~~~~~~~~9~~~\12\14---12-14-12\9/12----14-12\9---9-12-9-|
G|--------------------------------------------------------------------------------------------|
D|--------------------------------------------------------------------------------------------|
A|--------------------------------------------------------------------------------------------|
E|--------------------------------------------------------------------------------------------|

                                  h  p      s     s  
e|--s-----------h-s--------------9-11-9~~~~~\14~~~\16----|-----------------------------------------|
B|-5\7~~~~~~~~~~-9\12~~~~~~~~~~~----------------------14-|-----------------------------------------|
G|-------------------------------------------------------|---h--p--p--s-------h--p--p--s-----------|
D|-------------------------------------------------------|-13-14-13-11\13---13-14-13-11\13---14----|
A|-------------------------------------------------------|--------------------------------------14-|
E|-------------------------------------------------------|-----------------------------------------|


e|----------------------------------------------------------------------------------------------|
B|--------------------------------------------------------s-----------------s--s----------------|
G|---h--p-------p-------h--p--s-s------h---s---s--s----16-\18~~~~~~~~--16-18/13\16~~~~~~~~~~~~~-|
D|-11-13-11---13-11---11-13-11\9/11---9-11-\18-\21/18-------------------------------------------|
A|----------------------------------------------------------------------------------------------|
E|----------------------------------------------------------------------------------------------|

            
Submit corrections


        Lost And Found lessons Hard to play? Try these video lessons and learn fast Lost And Found lessons
        
↑ Back to top | Tablatures and chords for acoustic guitar and electric guitar, ukulele, drums are parodies/interpretations of the original songs. You may use it for private study, scholarship, research or language learning purposes only