» » »

Camel - Lost And Found Tabs

Artists:  A B C D E F G H I J K L M N O P Q R S T U V W X Y Z # 

Lost And Found Tabs

(ver. 1) Click to play this song!
Camel
 Rating:
4/5 (4 votes)

 Lost And Found lessons Tabs too difficult? Try these video lessons and learn fast
 
                -------------------------------------------------------------------------------
-------------------------------------------------------------------------------


Tuning: Standard
Time Signature: 7/8


e|----------------0--------------------0---------------------0---------------|
B|-------------0-----0--------------0-----0---------------0-----0------------|
G|---------6------------6--------6----------6----------6-----------6---------|
D|------6---------------------6---------------------6------------------------|
A|---4---------------------4-------------------------------------------------|
E|------------------------------------------------5--------------------------|

e|---------------------------------------------------------------------------|
B|---------------0----------------------0------------------------------------|
G|------------6-----6---------------6------6---------------------------------|
D|---------7-----------7---------7------------7------------------------------|
A|------7---------------------7----------------------------------------------|
E|---5---------------------5-------------------------------------------------|

e|---------------------------------------------------------------------------|
B|---------------0----------------------0------------------------------------|
G|------------8-----8---------------8------8---------------------------------|
D|---------9-----------8---------9------------9------------------------------|
A|------9---------------------9------------------9---------------------------|
E|---7---------------------7-------------------------------------------------|

e|-----------------------------4---------------------------------------------|
B|---------5---4------------5------4-----------------------------------------|
G|---------6---4---------6---------4-----------------------------------------|
D|------6------4------6------------4-----------------------------------------|
A|---4-------------4---------------------------------------------------------|
E|--------------------------------------------------------------------- -----|

e|----------0----------------0-------------------0---------------------------|
B|--------3---3------------3---3---------------4--4--------------------------|
G|------2-------2-------2--------2-----------4-----4-------------------------|
D|----2-----------2---2------------2-------4--------4------------------------|
A|--0---------------0----------------0---2------------2----------------------|
E|---------------------------------------------------------------------------|

SOLO PART:

e|---------------------------------------------------------------------------|
B|----5-5-5----4-4-4---------------------------------------------------------|
G|----6-6-6----4-4-4---------------------------------------------------------|
D|----6-6-6----4-4-4---------------------------------------------------------|
A|----4-4-4----x-x-x---------------------------------------------------------|
E|---------------------------------------------------------------------------|



EPIC PART:


E  B  C#m  G#m  A  B

************************************

| /   slide up
| \   slide down
| h   hammer-on
| p   pull-off
| ~   vibrato
| +   harmonic
| x   Mute note
| b   Bend
| pb  Pre-bend
| br  Bend release
| pbr Pre-bend release
| brb Bend release bend

************************************


Enjoy the song :)
            
Submit corrections


        Lost And Found lessons Hard to play? Try these video lessons and learn fast Lost And Found lessons
        
↑ Back to top | Tablatures and chords for acoustic guitar and electric guitar, ukulele, drums are parodies/interpretations of the original songs. You may use it for private study, scholarship, research or language learning purposes only