» » »

Callalily - Star Tabs

Artists:  A B C D E F G H I J K L M N O P Q R S T U V W X Y Z # 

Star Tabs

(ver. 1) Click to play this song!
Callalily
 Rating:
4/5 (4 votes)


 Star lessons Tabs too difficult? Try these video lessons and learn fast
 
                psst... rate nyo ha..
Intro:

e---------------------------------------------|       4    x    x           
B------------15-------------------------------|     4 4     x  x             
G-----12-12-----12--14-14--14-14h16-14-14s12--|    4  4       x    
D---------------------------------------------|   4444444    x x    
A---------------------------------------------|       4     x   x
E---------------------------------------------|       4    x     x



Verse:
em             C
a picture of you reminds me 
G                   D
how our years have gone so lonely 
em             C
why did you come and leave 
G                   D
without saying that you love me 

Pre-Chorus:
em             C
saying i love you again 
G                          D
are you listening 
em	       C 
open your eyes once again 
G			   D
are you crying 

Chorus:
G              D
if only you could hear me 
em			   C
shout your name 
G	       D
if only you could feel 
em		           C
my love again 
G	       D
the stars in the sky will 
em			   C
never be the same 
G	       D
if only i have wings 
em		           C
so i can fly 
G	       D
i wanna be with you 
em			   C
for all the time 
G	       D
my love for you will never die 
em			   C
if only you were here  

REPEAT NYO ULIT LAHAT NG 2x UNG ADLIB NMN!!!ITO PO UNG ADLIB

Adlib:
e------------------------------------------------|
B------------------------------------------------|
G------------------------------13h16-12-12h14-14-|
D--------8h9-8--12h14-14-12-14-------------------|
A--9h11-9-----9----------------------------------|
E------------------------------------------------|

e------------------------------------------------|
B------------------------------------------------|
G------------------------------12h14-12-7h9-7----|
D----------10-9----12h14-14-12-------------------|
A--10-9---------10-------------------------------|
E-------10---------------------------------------|

TPOS NG ADLIB GAWIN NYO ULIT UNG PRE-CHORUS
AND THEN CHORUS... UNG CHORUS 2X UULITIN TO FADE

potek....kakatamad pla mag submit ng tab d2...first tym ko lng kc eh..rate nyo na lng ng mataas pra masaya...
ewan ko lng kung tama to....kau na bahala mag ayos...7 yrs old lng kc ako eh
            
Submit corrections



        Star lessons Hard to play? Try these video lessons and learn fast Star lessons
        
↑ Back to top | Tablatures and chords for acoustic guitar and electric guitar, ukulele, drums are parodies/interpretations of the original songs. You may use it for private study, scholarship, research or language learning purposes only