» » »

Callalily - Sanctuary Tabs

Artists:  A B C D E F G H I J K L M N O P Q R S T U V W X Y Z # 

Sanctuary Tabs

(ver. 1) Click to play this song!
Callalily
 Rating:
4/5 (4 votes)

 Sanctuary lessons Tabs too difficult? Try these video lessons and learn fast
 
                Tab Maker: Lyle La Sangre

                             Sanctuary
Verse1:         Repeat nyo na lng ng ireapeat hangang matapos yung verse
E|-----------------------------------------------------------|
B|-----------------------------------------------------------|
G|---5---------7---------------------------------------------|
D|---5---------7---------------------------------------------|
A|---3---------5---------------------------------------------|
E|-----------------------------------------------------------|

Bridge:
E|-----------------------------------------------------------|
B|-----------------------------------------------------------|
G|---4--------5-------------7--------------------------------|
D|---4--------5-------------7--------------------------------|
A|---2--------3-------------5--------------------------------|
E|-----------------------------------------------------------|

Chorus:
E|-----------------------------------------------------------|
B------------------------------------------------------------|
G|-----------5------------9--------------7-------------------|
D|----5------5------------9--------------7-------------------|2x
A|----5------3------------7--------------5-------------------|
E|----3------------------------------------------------------|

Verse2: Same Chords
Bridge:same Chords
Chorus2: Same Chords

Solo: Hindi ko pa nakakapa e



Chorus3: Same Chords




Lyrics:
Verse1:
I know I can never be enough
But i'll always be here
I know that my words are simple and shallow
But I mean everything I say and do
I know I dont have a diamond ring
To put on your finger
But i will see to it that we will always be together

Bridge:
And I thank you from the bottom of my heart
Because.........

Chorus:
You are my light
You are my home
You are my Sanctuary
You are my peace 
You give me hope
You are my Sanctuary

Verse2:
You are my better half
You taught me things that i need to know
And you made me realize
That life is not just a simple song

Bridge:
And i thank you
Because, because

Chorus2:
You are my light
You are my home
You are my sanctuary
You are my peace
You give me hope
You are my sanctuary...

Chorus3:
You are my guide
When i am lost
You are my sanctuary
You are the heart
That keeps me alive
You are my sanctuary

You are the kiss
That makes me strong
You are my sanctuary
You are the warmth
When i feel cold
You are my sanctuary

My sanctuary...

My sanctuary... 

Yan nA! pakirate na lng po
            
Submit corrections


        Sanctuary lessons Hard to play? Try these video lessons and learn fast Sanctuary lessons
        
↑ Back to top | Tablatures and chords for acoustic guitar and electric guitar, ukulele, drums are parodies/interpretations of the original songs. You may use it for private study, scholarship, research or language learning purposes only