» » »

Cage The Elephant - Ready To Let Go Tabs

Artists:  A B C D E F G H I J K L M N O P Q R S T U V W X Y Z # 

Ready To Let Go Tabs

(ver. 2) Click to play this song!
Cage The Elephant
 Rating:
4.4/5 (17 votes)

 Ready To Let Go lessons Tabs too difficult? Try these video lessons and learn fast
 
                [Intro]

   Fm                                        Fm
e|-x---------8---------8---------8---------|-x---------8---------8---------8---------|
B|-x---------9---------9---------9---------|-x---------9---------9---------9---------|
G|-x---------10--------10--------10--------|-x---------10--------10--------10--------|
D|-x---------10--------10--------10--------|-x---------10--------10--------10--------|
A|-x---------------------------------------|-x---------------------------------------|
E|-x---------------------------------------|-x---------------------------------------|

   Ab                                        Ab                       Bbm
e|-x---------8---------8---------8---------|-x---------8---------8----9~~~-----------|
B|-x---------9---------9---------9---------|-x---------9---------9----11~~-----------|
G|-x---------8---------8---------8---------|-x---------8---------8----10~~-----------|
D|-x---------10--------10--------10--------|-x---------10--------10---11~~-----------|
A|-x---------------------------------------|-x---------------------------------------|
E|-x---------------------------------------|-x---------------------------------------|


[Verse 1]

Guitar 1
   Fm
e|-----------8-------------------8-------------------8---------|
B|-----------9-------------------9-------------------9---------|
G|-----------10------------------10------------------10--------|
D|-----------10------------------10------------------10--------|
A|-------------------------------------------------------------|
E|-------------------------------------------------------------|
Guitar 2
e|-8~~~--------------------------------------------------------|
B|-9~~~--------------------------------------------------------|
G|-10~~--------------------------------------------------------|
D|-10~~--------------------------------------------------------|
A|-------------------------------------------------------------|
E|-------------------------------------------------------------|

   Ab                                        Ab
e|-----------8-------------------8---------|-----------8-------------------8---------|
B|-----------9-------------------9---------|-----------9-------------------9---------|
G|-----------8-------------------8---------|-----------8-------------------8---------|
D|-----------10------------------10--------|-----------10------------------10--------|
A|-----------------------------------------|-----------------------------------------|
E|-----------------------------------------|-----------------------------------------|

   Fm                                                            Fm
e|-----------8-------------------8-------------------8---------|-----------8-------------------8---------|
B|-----------9-------------------9-------------------9---------|-----------9-------------------9---------|
G|-----------10------------------10------------------10--------|-----------10------------------10--------|
D|-----------10------------------10------------------10--------|-----------10------------------10--------|
A|-------------------------------------------------------------|-----------------------------------------|
E|-------------------------------------------------------------|-----------------------------------------|

   Ab                                        Ab
e|-----------8-------------------8---------|-----------8-------------------8---------|
B|-----------9-------------------9---------|-----------9-------------------9---------|
G|-----------8-------------------8---------|-----------8-------------------8---------|
D|-----------10------------------10--------|-----------10------------------10--------|
A|-----------------------------------------|-----------------------------------------|
E|-----------------------------------------|-----------------------------------------|
 

[Pre-Chorus]

   Db                                        Fm                  Eb
e|-----------9-------------------9---------|-----------8-------------------6---------|
B|-----------9-------------------9---------|-----------9-------------------8---------|
G|-----------10------------------10--------|-----------10------------------8---------|
D|-----------11------------------11--------|-----------10------------------8---------|
A|-----------------------------------------|-----------------------------------------|
E|-----------------------------------------|-----------------------------------------|

   Db                                        Fm                  Eb
e|-----------9-------------------9---------|-----------8-------------------6---------|
B|-----------9-------------------9---------|-----------9-------------------8---------|
G|-----------10------------------10--------|-----------10------------------8---------|
D|-----------11------------------11--------|-----------10------------------8---------|
A|-----------------------------------------|-----------------------------------------|
E|-----------------------------------------|-----------------------------------------|

   Db                                        Fm                  Eb
e|-----------9-------------------9---------|-----------8-------------------6---------|
B|-----------9-------------------9---------|-----------9-------------------8---------|
G|-----------10------------------10--------|-----------10------------------8---------|
D|-----------11------------------11--------|-----------10------------------8---------|
A|-----------------------------------------|-----------------------------------------|
E|-----------------------------------------|-----------------------------------------|

   Ab                  Db
e|-----------8-------------------9---------|
B|-----------9-------------------9---------|
G|-----------8-------------------10--------|
D|-----------10------------------11--------|
A|-----------------------------------------|
E|-----------------------------------------|  

  (C)                                       (C)
e|-----------------------------------------|-----------------------------------------|
B|-----------------------------------------|-----------------------------------------|
G|-----------------------------------------|-----------------------------------------|
D|-----------------------------------------|-----------------------------------------|
A|-----------------------------------------|-----------------------------------------|
E|-----------------------------------------|-----------------------------------------|


[Chorus]

Guitar 1
   Fm                                        Db
e|-----------8-------------------8---------|-----------9-------------------9---------|
B|-----------9-------------------9---------|-----------9-------------------9---------|
G|-----------10------------------10--------|-----------10------------------10--------|
D|-----------10------------------10--------|-----------11------------------11--------|
A|-----------------------------------------|-----------------------------------------|
E|-----------------------------------------|-----------------------------------------|
Guitar 2
   Fm                                        Db
e|-----------8~~~--------------------------|-----------9~~~--------------------------|
B|-/////9~~~-------------------------------|-/////9~~~-------------------------------|
G|-/////10~~-------------------------------|-/////10~~-------------------------------|
D|-/////10~~-------------------------------|-/////11~~-------------------------------|
A|-----------------------------------------|-----------------------------------------|
E|-----------------------------------------|-----------------------------------------|

Guitar 1
   Ab                                        C7
e|-----------8-------------------8---------|-----------8-------------------8---------|
B|-----------9-------------------9---------|-----------8-------------------8---------|
G|-----------8-------------------8---------|-----------9-------------------9---------|
D|-----------10------------------11--------|-----------10------------------10--------|
A|-----------------------------------------|-----------------------------------------|
E|-----------------------------------------|-----------------------------------------|
Guitar 2
  Ab                                        C7
e|-----------8~~~--------------------------|-----------6~~~--------------------------|
B|-/////9~~~-------------------------------|-/////5~~~-------------------------------|
G|-/////8~~~-------------------------------|-/////5~~~-------------------------------|
D|-/////10~~-------------------------------|-/////5~~~-------------------------------|
A|-----------------------------------------|-----------------------------------------|
E|-----------------------------------------|-----------------------------------------|

Guitar 1
   Fm                                        Db
e|-----------8-------------------8---------|-----------9-------------------9---------|
B|-----------9-------------------9---------|-----------9-------------------9---------|
G|-----------10------------------10--------|-----------10------------------10--------|
D|-----------10------------------10--------|-----------11------------------11--------|
A|-----------------------------------------|-----------------------------------------|
E|-----------------------------------------|-----------------------------------------|
Guitar 2
   Fm                                        Db
e|-----------8~~~--------------------------|-----------9~~~--------------------------|
B|-/////9~~~-------------------------------|-/////9~~~-------------------------------|
G|-/////10~~-------------------------------|-/////10~~-------------------------------|
D|-/////10~~-------------------------------|-/////11~~-------------------------------|
A|-----------------------------------------|-----------------------------------------|
E|-----------------------------------------|-----------------------------------------|

Guitar 1
   Ab
e|-----------8-------------------8---------|
B|-----------9-------------------9---------|
G|-----------8-------------------8---------|
D|-----------10------------------11--------|
A|-----------------------------------------|
E|-----------------------------------------|
Guitar 2
  Ab 
e|-----------8~~~--------------------------|
B|-/////9~~~-------------------------------|
G|-/////8~~~-------------------------------|
D|-/////10~~-------------------------------|
A|-----------------------------------------|
E|-----------------------------------------|

Guitar 1
   C7                                        C7
e|-----------8-------------------8---------|-----------8-------------------8---------|
B|-----------8-------------------8---------|-----------8-------------------8---------|
G|-----------9-------------------9---------|-----------9-------------------9---------|
D|-----------10------------------10--------|-----------10------------------10--------|
A|-----------------------------------------|-----------------------------------------|
E|-----------------------------------------|-----------------------------------------|
Guitar 2
   C7                                        C7
e|-----------6~~~--------------------------|-12~~~-----------------------------------|
B|-/////5~~~-------------------------------|-----------------------------------------|
G|-/////5~~~-------------------------------|-----------------------------------------|
D|-/////5~~~-------------------------------|-----------------------------------------|
A|-----------------------------------------|-----------------------------------------|
E|-----------------------------------------|-----------------------------------------|


[Intro Repeated]

   Fm                                        Fm
e|-x---------8---------8---------8---------|-x---------8---------8---------8---------|
B|-x---------9---------9---------9---------|-x---------9---------9---------9---------|
G|-x---------10--------10--------10--------|-x---------10--------10--------10--------|
D|-x---------10--------10--------10--------|-x---------10--------10--------10--------|
A|-x---------------------------------------|-x---------------------------------------|
E|-x---------------------------------------|-x---------------------------------------|

   Ab                                        Ab                       Bbm
e|-x---------8---------8---------8---------|-x---------8---------8----9~~~-----------|
B|-x---------9---------9---------9---------|-x---------9---------9----11~~-----------|
G|-x---------8---------8---------8---------|-x---------8---------8----10~~-----------|
D|-x---------10--------10--------10--------|-x---------10--------10---11~~-----------|
A|-x---------------------------------------|-x---------------------------------------|
E|-x---------------------------------------|-x---------------------------------------|


[Verse 2]

Guitar 1
   Fm
e|-----------8-------------------8-------------------8---------|
B|-----------9-------------------9-------------------9---------|
G|-----------10------------------10------------------10--------|
D|-----------10------------------10------------------10--------|
A|-------------------------------------------------------------|
E|-------------------------------------------------------------|
Guitar 2
   Fm
e|-8~~~--------------------------------------------------------|
B|-9~~~--------------------------------------------------------|
G|-10~~--------------------------------------------------------|
D|-10~~--------------------------------------------------------|
A|-------------------------------------------------------------|
E|-------------------------------------------------------------|

Guitar 1
   Ab                                        Ab
e|-----------8-------------------8---------|-----------8-------------------8---------|
B|-----------9-------------------9---------|-----------9-------------------9---------|
G|-----------8-------------------8---------|-----------8-------------------8---------|
D|-----------10------------------10--------|-----------10------------------10--------|
A|-----------------------------------------|-----------------------------------------|
E|-----------------------------------------|-----------------------------------------|
Guitar 2
e|-----------------------------------------|-----------------------------------------|
B|-/////13~~~------------------------------|-----------------------------------------|
G|-/////13~~~------------------------------|-----------------------------------------|
D|-/////13~~~------------------------------|-----------------------------------------|
A|-----------------------------------------|-----------------------------------------|
E|-----------------------------------------|-----------------------------------------|

   Fm                                                            Fm
e|-----------8-------------------8-------------------8---------|-----------8-------------------8---------|
B|-----------9-------------------9-------------------9---------|-----------9-------------------9---------|
G|-----------10------------------10------------------10--------|-----------10------------------10--------|
D|-----------10------------------10------------------10--------|-----------10------------------10--------|
A|-------------------------------------------------------------|-----------------------------------------|
E|-------------------------------------------------------------|-----------------------------------------|

   Ab                                        Ab
e|-----------8-------------------8---------|-----------8-------------------8---------|
B|-----------9-------------------9---------|-----------9-------------------9---------|
G|-----------8-------------------8---------|-----------8-------------------8---------|
D|-----------10------------------10--------|-----------10------------------10--------|
A|-----------------------------------------|-----------------------------------------|
E|-----------------------------------------|-----------------------------------------|


[Pre-Chorus]

   Db                                        Fm                  Eb
e|-----------9-------------------9---------|-----------8-------------------6---------|
B|-----------9-------------------9---------|-----------9-------------------8---------|
G|-----------10------------------10--------|-----------10------------------8---------|
D|-----------11------------------11--------|-----------10------------------8---------|
A|-----------------------------------------|-----------------------------------------|
E|-----------------------------------------|-----------------------------------------|

   Db                                        Fm                  Eb
e|-----------9-------------------9---------|-----------8-------------------6---------|
B|-----------9-------------------9---------|-----------9-------------------8---------|
G|-----------10------------------10--------|-----------10------------------8---------|
D|-----------11------------------11--------|-----------10------------------8---------|
A|-----------------------------------------|-----------------------------------------|
E|-----------------------------------------|-----------------------------------------|

   Db                                        Fm                  Eb
e|-----------9-------------------9---------|-----------8-------------------6---------|
B|-----------9-------------------9---------|-----------9-------------------8---------|
G|-----------10------------------10--------|-----------10------------------8---------|
D|-----------11------------------11--------|-----------10------------------8---------|
A|-----------------------------------------|-----------------------------------------|
E|-----------------------------------------|-----------------------------------------|

   Ab                  Db
e|-----------8-------------------9---------|
B|-----------9-------------------9---------|
G|-----------8-------------------10--------|
D|-----------10------------------11--------|
A|-----------------------------------------|
E|-----------------------------------------|  

  (C)                                       (C)
e|-----------------------------------------|-----------------------------------------|
B|-----------------------------------------|-----------------------------------------|
G|-----------------------------------------|-----------------------------------------|
D|-----------------------------------------|-----------------------------------------|
A|-----------------------------------------|-----------------------------------------|
E|-----------------------------------------|-----------------------------------------|


[Chorus]

Guitar 1
   Fm                                        Db
e|-----------8-------------------8---------|-----------9-------------------9---------|
B|-----------9-------------------9---------|-----------9-------------------9---------|
G|-----------10------------------10--------|-----------10------------------10--------|
D|-----------10------------------10--------|-----------11------------------11--------|
A|-----------------------------------------|-----------------------------------------|
E|-----------------------------------------|-----------------------------------------|
Guitar 2
   Fm                                        Db
e|-----------8~~~--------------------------|-----------9~~~--------------------------|
B|-/////9~~~-------------------------------|-/////9~~~-------------------------------|
G|-/////10~~-------------------------------|-/////10~~-------------------------------|
D|-/////10~~-------------------------------|-/////11~~-------------------------------|
A|-----------------------------------------|-----------------------------------------|
E|-----------------------------------------|-----------------------------------------|

Guitar 1
   Ab                                        C7
e|-----------8-------------------8---------|-----------8-------------------8---------|
B|-----------9-------------------9---------|-----------8-------------------8---------|
G|-----------8-------------------8---------|-----------9-------------------9---------|
D|-----------10------------------11--------|-----------10------------------10--------|
A|-----------------------------------------|-----------------------------------------|
E|-----------------------------------------|-----------------------------------------|
Guitar 2
  Ab                                        C7
e|-----------8~~~--------------------------|-----------6~~~--------------------------|
B|-/////9~~~-------------------------------|-/////5~~~-------------------------------|
G|-/////8~~~-------------------------------|-/////5~~~-------------------------------|
D|-/////10~~-------------------------------|-/////5~~~-------------------------------|
A|-----------------------------------------|-----------------------------------------|
E|-----------------------------------------|-----------------------------------------|

Guitar 1
   Fm                                        Db
e|-----------8-------------------8---------|-----------9-------------------9---------|
B|-----------9-------------------9---------|-----------9-------------------9---------|
G|-----------10------------------10--------|-----------10------------------10--------|
D|-----------10------------------10--------|-----------11------------------11--------|
A|-----------------------------------------|-----------------------------------------|
E|-----------------------------------------|-----------------------------------------|
Guitar 2
   Fm                                        Db
e|-----------8~~~--------------------------|-----------9~~~--------------------------|
B|-/////9~~~-------------------------------|-/////9~~~-------------------------------|
G|-/////10~~-------------------------------|-/////10~~-------------------------------|
D|-/////10~~-------------------------------|-/////11~~-------------------------------|
A|-----------------------------------------|-----------------------------------------|
E|-----------------------------------------|-----------------------------------------|

Guitar 1
   Ab
e|-----------8-------------------8---------|
B|-----------9-------------------9---------|
G|-----------8-------------------8---------|
D|-----------10------------------11--------|
A|-----------------------------------------|
E|-----------------------------------------|
Guitar 2
  Ab 
e|-----------8~~~--------------------------|
B|-/////9~~~-------------------------------|
G|-/////8~~~-------------------------------|
D|-/////10~~-------------------------------|
A|-----------------------------------------|
E|-----------------------------------------|

Guitar 1
   C7                                        C7
e|-----------8-------------------8---------|-----------8-------------------8---------|
B|-----------8-------------------8---------|-----------8-------------------8---------|
G|-----------9-------------------9---------|-----------9-------------------9---------|
D|-----------10------------------10--------|-----------10------------------10--------|
A|-----------------------------------------|-----------------------------------------|
E|-----------------------------------------|-----------------------------------------|
Guitar 2
   C7                                        C7
e|-----------6~~~--------------------------|-12~~~-----------------------------------|
B|-/////5~~~-------------------------------|-----------------------------------------|
G|-/////5~~~-------------------------------|-----------------------------------------|
D|-/////5~~~-------------------------------|-----------------------------------------|
A|-----------------------------------------|-----------------------------------------|
E|-----------------------------------------|-----------------------------------------|


[Interlude]

   Db                                        Fm                  Eb
e|-/13~~~------------------/20~~~----------|-\18------\16-------/18-------/20--------|
B|-----------------------------------------|-----------------------------------------|
G|-----------------------------------------|-----------------------------------------|
D|-----------------------------------------|-----------------------------------------|
A|-----------------------------------------|-----------------------------------------|
E|-----------------------------------------|-----------------------------------------|

   Db                                        Fm                  Eb
e|-/13~~~------------------/20~~~----------|-\18------\16-------/18-------\16--------|
B|-----------------------------------------|-----------------------------------------|
G|-----------------------------------------|-----------------------------------------|
D|-----------------------------------------|-----------------------------------------|
A|-----------------------------------------|-----------------------------------------|
E|-----------------------------------------|-----------------------------------------|

   Ab                  Db
e|-\13----------------/16------------------|
B|-----------------------------------------|
G|-----------------------------------------|
D|-----------------------------------------|
A|-----------------------------------------|
E|-----------------------------------------|

  (C)                                       (C)
e|-\15~~~----------------------------------|-----------------------------------------|
B|-----------------------------------------|-----------------------------------------|
G|-----------------------------------------|-----------------------------------------|
D|-----------------------------------------|-----------------------------------------|
A|-----------------------------------------|-----------------------------------------|
E|-----------------------------------------|-----------------------------------------|


[Chorus]

Guitar 1
   Fm                                        Db
e|-----------8-------------------8---------|-----------9-------------------9---------|
B|-----------9-------------------9---------|-----------9-------------------9---------|
G|-----------10------------------10--------|-----------10------------------10--------|
D|-----------10------------------10--------|-----------11------------------11--------|
A|-----------------------------------------|-----------------------------------------|
E|-----------------------------------------|-----------------------------------------|
Guitar 2
   Fm                                        Db
e|-----------8~~~--------------------------|-----------9~~~--------------------------|
B|-/////9~~~-------------------------------|-/////9~~~-------------------------------|
G|-/////10~~-------------------------------|-/////10~~-------------------------------|
D|-/////10~~-------------------------------|-/////11~~-------------------------------|
A|-----------------------------------------|-----------------------------------------|
E|-----------------------------------------|-----------------------------------------|

Guitar 1
   Ab                                        C7
e|-----------8-------------------8---------|-----------8-------------------8---------|
B|-----------9-------------------9---------|-----------8-------------------8---------|
G|-----------8-------------------8---------|-----------9-------------------9---------|
D|-----------10------------------11--------|-----------10------------------10--------|
A|-----------------------------------------|-----------------------------------------|
E|-----------------------------------------|-----------------------------------------|
Guitar 2
  Ab                                        C7
e|-----------8~~~--------------------------|-----------6~~~--------------------------|
B|-/////9~~~-------------------------------|-/////5~~~-------------------------------|
G|-/////8~~~-------------------------------|-/////5~~~-------------------------------|
D|-/////10~~-------------------------------|-/////5~~~-------------------------------|
A|-----------------------------------------|-----------------------------------------|
E|-----------------------------------------|-----------------------------------------|

Guitar 1
   Fm                                        Db
e|-----------8-------------------8---------|-----------9-------------------9---------|
B|-----------9-------------------9---------|-----------9-------------------9---------|
G|-----------10------------------10--------|-----------10------------------10--------|
D|-----------10------------------10--------|-----------11------------------11--------|
A|-----------------------------------------|-----------------------------------------|
E|-----------------------------------------|-----------------------------------------|
Guitar 2
   Fm                                        Db
e|-----------8~~~--------------------------|-----------9~~~--------------------------|
B|-/////9~~~-------------------------------|-/////9~~~-------------------------------|
G|-/////10~~-------------------------------|-/////10~~-------------------------------|
D|-/////10~~-------------------------------|-/////11~~-------------------------------|
A|-----------------------------------------|-----------------------------------------|
E|-----------------------------------------|-----------------------------------------|

Guitar 1
   Ab
e|-----------8-------------------8---------|
B|-----------9-------------------9---------|
G|-----------8-------------------8---------|
D|-----------10------------------11--------|
A|-----------------------------------------|
E|-----------------------------------------|
Guitar 2
  Ab 
e|-----------8~~~--------------------------|
B|-/////9~~~-------------------------------|
G|-/////8~~~-------------------------------|
D|-/////10~~-------------------------------|
A|-----------------------------------------|
E|-----------------------------------------|

Guitar 1
   C7                                        C7
e|-----------8-------------------8---------|-----------------------------------------|
B|-----------8-------------------8---------|-----------------------------------------|
G|-----------9-------------------9---------|-----------------------------------------|
D|-----------10------------------10--------|-----------------------------------------|
A|-----------------------------------------|-----------------------------------------|
E|-----------------------------------------|-----------------------------------------|
Guitar 2
   C7                                        C7
e|-----------6~~~--------------------------|-12~~~-----------------------------------|
B|-/////5~~~-------------------------------|-----------------------------------------|
G|-/////5~~~-------------------------------|-----------------------------------------|
D|-/////5~~~-------------------------------|-----------------------------------------|
A|-----------------------------------------|-----------------------------------------|
E|-----------------------------------------|-----------------------------------------|

            
Submit corrections


        Ready To Let Go lessons Hard to play? Try these video lessons and learn fast Ready To Let Go lessons
        
↑ Back to top | Tablatures and chords for acoustic guitar and electric guitar, ukulele, drums are parodies/interpretations of the original songs. You may use it for private study, scholarship, research or language learning purposes only