» » »

Cage The Elephant - Ready To Let Go Tabs

Artists:  A B C D E F G H I J K L M N O P Q R S T U V W X Y Z # 

Ready To Let Go Tabs

(ver. 1) Click to play this song!
Cage The Elephant
 Rating:
4.2/5 (14 votes)

 Ready To Let Go lessons Tabs too difficult? Try these video lessons and learn fast
 
                [Intro]

e|---------------------------------------------------------------------------|
B|---------------------------------------------------------------------------|
G|---------------------------------------------------------------------------|
D|---------------------------------------------------------------------------|
A|---------------------------------------------------------------------------|
E|-1---------1----1--1--1---------1----1--1--4----------4----4--4--4---------|

e|---------------------------------------------------------------------------|
B|---------------------------------------------------------------------------|
G|---------------------------------------------------------------------------|
D|---------------------------------------------------------------------------|
A|---------------------------------------------------------------------------|
E|-6-----1-------------------------------------------------------------------|


[Chorus]

e|--1----1------9----9-------8---8-------6----6------------------------------|
B|--1-----------9------------9-----------5-----------------------------------|
G|--1-----------10-----------8-----------3-----------------------------------|
D|--3-----------11-----------------------------------------------------------|
A|---------------------------------------------------------------------------|
E|---------------------------------------------------------------------------|

e|--1----1------9----9-------8---8-------6-----------------12----------------|
B|--1-----------9------------9-----------5-----------------------------------|
G|--1-----------10-----------8-----------3-----------------------------------|
D|--3-----------11-----------------------------------------------------------|
A|---------------------------------------------------------------------------|
E|---------------------------------------------------------------------------|

[Solo]

e|------------------20----18----16----18----20-------------------20----18----|
B|-13/18------------------------------------------18-------------------------|
G|---------------------------------------------------------------------------|
D|---------------------------------------------------------------------------|
A|---------------------------------------------------------------------------|
E|---------------------------------------------------------------------------|

e|16----18----16-------------------------------------------------------------|
B|------------------18--------21--------20----------------20-----------------|
G|---------------------------------------------------------------------------|
D|---------------------------------------------------------------------------|
A|---------------------------------------------------------------------------|
E|---------------------------------------------------------------------------|            
Submit corrections


        Ready To Let Go lessons Hard to play? Try these video lessons and learn fast Ready To Let Go lessons
        
↑ Back to top | Tablatures and chords for acoustic guitar and electric guitar, ukulele, drums are parodies/interpretations of the original songs. You may use it for private study, scholarship, research or language learning purposes only