» » »

Cage The Elephant - Punchin Bag Tabs

Artists:  A B C D E F G H I J K L M N O P Q R S T U V W X Y Z # 

Punchin Bag Tabs

(ver. 1) Click to play this song!
Cage The Elephant
 Rating:
4.3/5 (24 votes)

 Punchin Bag  lessons Tabs too difficult? Try these video lessons and learn fast
 
                e|----------------------------------------------------------|
B|----------------------------------------------------------|
G|----------------------------------------------------------| 
D|----------------------------------------------------------|
A|-------7---3---5---3---5-----------7---3---5---3---5------|
E|---5-----------------------3---5-----------------------3--|

e|----------------------------------------------------------|
B|----------------------------------------------------------|
G|----------------------------------------------------------| 
D|----------------------------------------------------------|
A|-------7---3---5---3---5-----------7---3---5---3---5------|
E|---5-----------------------3---5-----------------------3--|

e|---------------------------------------------------------------------------|
B|---------------------------------------------------------------------------|
G|-------------------------------------------------------5---5---9---9-------| 
D|-------------------------------------------------------5---5---9---9-------|
A|-------7---3---5---3---5-----------7---3---5---3---5---3---3---7---7-------|
E|---5-----------------------3---5---------------------------------------5---|
            
Submit corrections


        Punchin Bag  lessons Hard to play? Try these video lessons and learn fast Punchin Bag  lessons
        
↑ Back to top | Tablatures and chords for acoustic guitar and electric guitar, ukulele, drums are parodies/interpretations of the original songs. You may use it for private study, scholarship, research or language learning purposes only