» » »

Cage The Elephant - Punchin Bag Tabs

Artists:  A B C D E F G H I J K L M N O P Q R S T U V W X Y Z # 

Punchin Bag Tabs

(ver. 2) Click to play this song!
Cage The Elephant
 Rating:
4.3/5 (15 votes)

 Punchin Bag  lessons Tabs too difficult? Try these video lessons and learn fast
 
                Intro: 
e|-------------------------------------------------------|
B|-------------------------------------------------------|
G|-------------------------------------------------------| x 3
D|-------------------------------------------------------|
A|---------7---3-5-3-5---------7--3-5-3-5----------------|
E|--3/--5--------------3/---5----------------------------|

     C      E     A
e|--3-3-/--7-7----5----------------------------------------------------------------|
B|--5-5-/--9-9----5----------------------------------------------------------------|
G|--5-5-/--9-9----6----------------------------------------------------------------|
D|--5-5-/--9-9----7----------------------------------------------------------------|
A|--3-3-/--7-7----7----------------------------------------------------------------|
E|----------------5-----------------------------------------------------------|

Verse is kind of soft.

e|----------------------------------------- Right before     ------------------------------------------|
B|----------------------------------------- "Oh no, ain't it ------------------------------------------|
G|----------------------------------------- a drag...":       -----------------------------------------|
D|------------------------------------5----                  ------------------------------------------|
A|--------5-7-5-----7-----------5-7-5---7--                  ---------5-7-5----------------------------|
E|-5-5----------------3---5-5--------------                  ---5-5------------------------------------|


Bridge ("Oh no, ain't it a drag..."): 
    G                  G F#F E  E E E                 E F F#G   G                       G F#F E  E E E E E
e|--3--              --3-2-1--0--0-0-0----------------0-1-2-3---3--                    -3-2-1-0--0-0-0-0-0---|
B|--3--              --3-2-1--0--0-0-0----------------0-1-2-3---3--                    -3-2-1-0--0-0-0-0-0---|
G|--4-- Strum G      --4-3-2--1--1-1-1----------------1-2-3-4---4-- Strum G            -4-3-2-1--1-1-1-1-1---|
D|--5-- a few times, --5-4-3--2--2-2-2----------------2-3-4-5---5-- a few times again, -5-4-3-2--2-2-2-2-2---|
A|--5-- then play:   --5-4-3--2--2-2-0----2-----2-----2-3-4-5---5-- then play:         -5-4-3-2--2-2-2-2-2---|
E|--3--              --3-2-1--0--0-0-0--0---0-0-------0-1-2-3---3--                    -3-2-1-0--0-0-0-0-0---|


Chorus ("I'm not your punching bag...")
    A  A    A A    C C C     E E E  
e|--5--5----5-5----3-3-3-----7-7-7-----     
B|--5--5----5-5----5-5-5-----9-9-9-----     
G|--6--6----6-6----5-5-5-----9-9-9-----     
D|--7--7----7-7----5-5-5-----9-9-9----- x3  
A|--7--7----7-7----3-3-3-----7-7-7-----     
E|--5--5----5-5------------------------    
    
    A
e|--5-------------|
B|--5-------------|
G|--6-------------|
D|--7--=----------|  "Afraid of nothin', and she carries a knife..."
A|--7-------------|
E|--5-------------

    A  A    A A    C C C     E E E  
e|--5--5----5-5----3-3-3-----7-7-7-----     
B|--5--5----5-5----5-5-5-----9-9-9-----     
G|--6--6----6-6----5-5-5-----9-9-9-----     
D|--7--7----7-7----5-5-5-----9-9-9----- x3  
A|--7--7----7-7----3-3-3-----7-7-7-----     
E|--5--5----5-5------------------------ 

Intro 
e|-------------------------------------------------------|
B|-------------------------------------------------------|
G|-------------------------------------------------------| 
D|-------------------------------------------------------|
A|---------7---3-5-3-5---------7--3-5-3-5----------------|
E|--3/--5--------------3/---5----------------------------|

     C      E     A
e|--3-3-/--7-7----5----------------------------------------------------------------|
B|--5-5-/--9-9----5----------------------------------------------------------------|
G|--5-5-/--9-9----6----------------------------------------------------------------|
D|--5-5-/--9-9----7----------------------------------------------------------------|
A|--3-3-/--7-7----7----------------------------------------------------------------|
E|----------------5-----------------------------------------------------------|

Verse:

e|----------------------------------------- Right before     ------------------------------------------|
B|----------------------------------------- "Oh no, ain't it ------------------------------------------|
G|----------------------------------------- a drag...":       -----------------------------------------|
D|------------------------------------5----                  ------------------------------------------|
A|--------5-7-5-----7-----------5-7-5---7--                  ---------5-7-5----------------------------|
E|-5-5----------------3---5-5--------------                  ---5-5------------------------------------|

Bridge ("Oh no, ain't it a drag..."): 
    G                  G F#F E  E E E                 E F F#G   G                       G F#F E  E E E E E
e|--3--              --3-2-1--0--0-0-0------0-1-2-3---3--                    -3-2-1-0--0-0-0-0-0---|
B|--3--              --3-2-1--0--0-0-0------0-1-2-3---3--                    -3-2-1-0--0-0-0-0-0---|
G|--4-- Strum G      --4-3-2--1--1-1-1------1-2-3-4---4-- Strum G            -4-3-2-1--1-1-1-1-1---|
D|--5-- a few times, --5-4-3--2--2-2-2------2-3-4-5---5-- a few times again, -5-4-3-2--2-2-2-2-2---|
A|--5-- then play:   --5-4-3--2--2-2-0------2-3-4-5---5-- then play:         -5-4-3-2--2-2-2-2-2---|
E|--3--              --3-2-1--0--0-0-0------0-1-2-3---3--                    -3-2-1-0--0-0-0-0-0---|



Chorus ("I'm not your punching bag...")
    A  A    A A    C C C     E E E  
e|--5--5----5-5----3-3-3-----7-7-7-----     
B|--5--5----5-5----5-5-5-----9-9-9-----     
G|--6--6----6-6----5-5-5-----9-9-9-----     
D|--7--7----7-7----5-5-5-----9-9-9----- x3  
A|--7--7----7-7----3-3-3-----7-7-7-----     
E|--5--5----5-5------------------------    
    
    A
e|--5-------------|
B|--5-------------|
G|--6-------------|
D|--7--=----------|  "Afraid of nothin', and she carries a knife..."
A|--7-------------|
E|--5-------------|

    A  A    A A    C C C     E E E  
e|--5--5----5-5----3-3-3-----7-7-7-----     
B|--5--5----5-5----5-5-5-----9-9-9-----     
G|--6--6----6-6----5-5-5-----9-9-9-----     
D|--7--7----7-7----5-5-5-----9-9-9----- x3  
A|--7--7----7-7----3-3-3-----7-7-7-----     
E|--5--5----5-5------------------------ 

Bridge2: 
    A Ab G F# G F#F E
e|--5-4-3-2---3-2-1-0----------------------------------------------------------------|
B|--5-4-3-2---3-2-1-0----------------------------------------------------------------|
G|--6-5-4-3---4-3-2-1----------------------------------------------------------------|
D|--7-6-5-4---5-4-3-2----------------------------------------------------------------|
A|--7-6-5-4---5-4-3-2----------------------------------------------------------------|
E|--5-4-3-2---3-2-1-0-----------------------------------------------------------------|

"Last time, last time..."
e|-----------------------------------------|
B|-----------------------------------------|
G|-----------------------------------------|
D|--7-5---7-5------------------------------|   x4
A|---------------7--5-7-5-7----------------|
E|-----------------------------------------|

Bridge ("Oh no, ain't it a drag..."): 
    G                  G F#F E  E E E                 E F F#G   G                       G F#F E  E E E E E
e|--3--              --3-2-1--0--0-0-0-----0-1-2-3---3--                    -3-2-1-0--0-0-0-0-0---|
B|--3--              --3-2-1--0--0-0-0-----0-1-2-3---3--                    -3-2-1-0--0-0-0-0-0---|
G|--4-- Strum G      --4-3-2--1--1-1-1-----1-2-3-4---4-- Strum G            -4-3-2-1--1-1-1-1-1---|
D|--5-- a few times, --5-4-3--2--2-2-2-----2-3-4-5---5-- a few times again, -5-4-3-2--2-2-2-2-2---|
A|--5-- then play:   --5-4-3--2--2-2-0-----2-3-4-5---5-- then play:         -5-4-3-2--2-2-2-2-2---|
E|--3--              --3-2-1--0--0-0-0-----0-1-2-3---3--                    -3-2-1-0--0-0-0-0-0---|


Chorus ("I'm not your punching bag..." 
    A  A    A A    C C C     E E E  
e|--5--5----5-5----3-3-3-----7-7-7-----     
B|--5--5----5-5----5-5-5-----9-9-9-----     
G|--6--6----6-6----5-5-5-----9-9-9-----     
D|--7--7----7-7----5-5-5-----9-9-9-----   
A|--7--7----7-7----3-3-3-----7-7-7-----     until end
E|--5--5----5-5------------------------               
Submit corrections


        Punchin Bag  lessons Hard to play? Try these video lessons and learn fast Punchin Bag  lessons
        
↑ Back to top | Tablatures and chords for acoustic guitar and electric guitar, ukulele, drums are parodies/interpretations of the original songs. You may use it for private study, scholarship, research or language learning purposes only