» » »

Butterfly Effect - A Slow Descent Tabs

Artists:  A B C D E F G H I J K L M N O P Q R S T U V W X Y Z # 

A Slow Descent Tabs

(ver. 1) Click to play this song!
Butterfly Effect
 Rating:
4/5 (4 votes)

 A Slow Descent lessons Tabs too difficult? Try these video lessons and learn fast
 
                -----------------------------------------------------------------------
                   A Slow Descent - The Butterfly Effect
-----------------------------------------------------------------------


Tuning: Drop C

Intro           
D|-------|    |-------|    |-------|    |----------|
A|-------|    |-------|    |-------|    |----------|
F|-------|x16 |-------|x16 |-------|x16 |----------|x16
C|-------|    |-------|    |-------|    |----------|
G|-------|    |-------|    |-------|    |----------|
C|-0h3h5-|    |-0h6h8-|    |-0h8h10|    |-0h3h5----|


Verse
D|------------------------------------------------------------|
A|------------------------------------------------------------|
F|------------------------------------------------------------|
C|------------------------------------------------------------|
G|-3h5-5-5-3h5-5-3h5-5-3h5-5-3h5-5-3h5-5----------------------|
C|-3h5-5-5-3h5-5-3h5-5-3h5-5-3h5-5-3h5-5----------------------|

D|------------------------------------------------------------|
A|------------------------------------------------------------|
F|------------------------------------------------------------|
C|------------------------------------------------------------|
G|-6h8-8-8-6h8-8-6h8-8-6h8-8-6h8-8-6h8-8----------------------|
C|-6h8-8-8-6h8-8-6h8-8-6h8-8-6h8-8-6h8-8----------------------|

D|------------------------------------------------------------|
A|------------------------------------------------------------|
F|------------------------------------------------------------|
C|------------------------------------------------------------|
G|-0h3-3-3-0h3-3-0h3-3-0h3-3-0h3-3-0h3-3----------------------|
C|-0h3-3-3-0h3-3-0h3-3-0h3-3-0h3-3-0h3-3----------------------|

D|------------------------------------------------------------|
A|------------------------------------------------------------|
F|------------------------------------------------------------|
C|------------------------------------------------------------|
G|-3h5-5-5-3h5-5-3h5-5-3h5-5-3h5-5-3h5-3h5-3h5-3h5------------|
C|-3h5-5-5-3h5-5-3h5-5-3h5-5-3h5-5-3h5-3h5-3h5-3h5------------|

Chorus
D|-------------------------------------------------------------|
A|-------------------------------------------------------------|
F|-77777777-55555555-33333333----------------------------------|
C|-77777777-55555555-33333333----------------------------------|
G|-55555555-33333333-11111111-555-5555-5555-5555-------0h3h5---|
C|----------------------------555-5555-5555-5555-0h3h5---------|

bit after 2nd chorus
D|-------------------------------------------------------------|
A|-------------------------------------------------------------|
F|-------------------------------------------------------------|
C|-------------------------------------------------------------|
G|--5555-5555-5555-5555-5555-5555-5333-3333--------------------|
C|--5555-5555-5555-5555-5555-5555-5333-3333--------------------|

then play the intro riff a few times, it changes a bit.
I'll tab it some other time.

Chorus
D|-------------------------------------------------------------|
A|-------------------------------------------------------------|
F|-77777777-55555555-33333333----------------------------------|
C|-77777777-55555555-33333333----------------------------------|
G|-55555555-33333333-11111111-555-5555-5555-5555-------0h3h5---|
C|----------------------------555-5555-5555-5555-0h3h5---------|


Outro      There are 2 guitars playing, this is one of them 
D|---------------------------------------------------------------|
A|---------------------------------------------------------------|
F|---5-7~~-7^-7~---5-7~-5-7-8-7-5-7-8/10-8-7-8-10-8-7-8-10-8-7-8-|
C|-5-------------5-----------------------------------------------|
G|---------------------------------------------------------------|
C|---------------------------------------------------------------|
                                  play with this a few times
D|---------------------------| |---------------------------------|
A|-----------11-11p10-10p8-8-| |--11-11p10-8----11-11p10-13------|
F|-10-8-7-12-----------------| |---------------------------------|
C|---------------------------| |---------------------------------|
G|---------------------------| |---------------------------------|
C|---------------------------| |---------------------------------|

That's all i have so far, I will add the rest soon.



| ^  bend note
| /  slide up
| \  slide down
| h  hammer-on
| p  pull-off
| ~  vibrato
| +  harmonic
| x  Mute note
=======================================================================
            
Submit corrections


        A Slow Descent lessons Hard to play? Try these video lessons and learn fast A Slow Descent lessons
        
↑ Back to top | Tablatures and chords for acoustic guitar and electric guitar, ukulele, drums are parodies/interpretations of the original songs. You may use it for private study, scholarship, research or language learning purposes only